PrimaNota.ru - самый крупный в мире бесплатный архив песенных текстов, аккордов, табулатур и нот


Taking Back Sunday - Lightning Song - бас-таба, видео

Регистрация Запомнить меня
Войти через:  Facebook Google Twitter Vk Yandex Mail.ru

Taking Back Sunday - Lightning Song - бас-таба, видео

Печатать
Просмотров: 31
-------------------------------------------------------------------------------
                             Lightning Song - Taking Back Sunday
-------------------------------------------------------------------------------
Tabbed by: H. Benjamin Palmer
E-mail: harrypalmer182@gmail.com

Tuning: half-step down

They do this song at the end of Decade Under The Influence on the album Live From Orensanz.
Matt Rubano starts it off at about 4:34. Does it all on one string.


Gb|-11-11-13-14-16-18--19-19-18-16-14-13--------------------------------------|\
Db|---------------------------------------------------------------------------| \
Ab|---------------------------------------------------------------------------|  \
Eb|---------------------------------------------------------------------------|   \
                                                                                   (x4)     
Gb|-11-11-13-14-16-18--11-9-11------------------------------------------------|   /
Db|---------------------------------------------------------------------------|  /
Ab|---------------------------------------------------------------------------| /
Eb|---------------------------------------------------------------------------|/


Gb|-11-11p9h11~~~~~~~~~~~~~~--------------------------------------------------|
Db|---------------------------------------------------------------------------|
Ab|---------------------------------------------------------------------------|
Eb|---------------------------------------------------------------------------|


or


Gb|-----------~~--16~18--19-19-18-16------------------------------------------|\
Db|-16--16-18-19---------------------19-18------------------------------------| \
Ab|---------------------------------------------------------------------------|  \
Eb|---------------------------------------------------------------------------|   \
                                                                                   (x4)
Gb|--------------16-18--------------------------------------------------------|   /
Db|-16--16-18-19--------16-16--14-14------------------------------------------|  /
Ab|---------------------------------------------------------------------------| /
Eb|---------------------------------------------------------------------------|/


Gb|-----------~~~~~~~~~~~~~~--------------------------------------------------|
Db|-16--16-14-16--------------------------------------------------------------|
Ab|---------------------------------------------------------------------------|
Eb|---------------------------------------------------------------------------|



| /  slide up
| \  slide down
| h  hammer-on
| p  pull-off
| ~  vibrato
| +  harmonic
| x  Mute note
===============================================================================
Добавлено: 17.11.2015
Другие материалы по этой песне:
  • Аккорды и текст

Страница создана 17.11.2015
http://primanota.ru/taking-back-sunday/lightning-song-chords.htm
Привет, Гость.
Предлагаем пройти революционный курс по гитаре.
Подарок от PrimaNota.Ru, забирай!