PrimaNota.ru - самый крупный в мире бесплатный архив песенных текстов, аккордов, табулатур и нот


Taking Back Sunday - Didnt See That Coming - таба, видео

Регистрация Запомнить меня
Войти через:  Facebook Google Twitter Vk Yandex Mail.ru

Taking Back Sunday - Didnt See That Coming - таба, видео

Печатать
Просмотров: 109
Tabbed by Allan
Dated:18th September 2009
Tuning : Standard

I am not very good so at transcribing so if it isnt the best well i tried.
I was only able to figure the first part out so use this as a start and also
please comment.Thank You :)

P.S This is my first tab ever

e|----------------------------------------4--4--4--------4--4--4------|
B|--6-7-6-7-6-7-6-6---6-7-6-7-6-7-6-6---2--2--2--2-2---2--2--2--2-2---|
G|-6-6---6---6---6---6-6---6---6---6---3-3--3--3--3---3-3--3--3--3----|
D|--------------------------------------------------------------------|
A|--------------------------------------------------------------------|
E|--------------------------------------------------------------------|

This is played after the first chorus
e|----------------------------------------------|
B|-6~--4~--2~--6-4-2-1-2~----2-4--6-4-2---------|
G|-------------------------3------------1-------|
D|----------------------------------------------|
A|----------------------------------------------|
E|----------------------------------------------|


This is played after second chorus
e|---------------------------------------------------------------|
B|-6~--4~--2~--6-4-2-1-2~----2-4--6-4-2----6~-7~-9~--6-4-2-1-2~--|
G|-------------------------1------------1------------------------|
D|---------------------------------------------------------------|
A|---------------------------------------------------------------|
E|---------------------------------------------------------------|


e|------------6-4-------|
B|---2-4--6-4-----------|
G|-3--------------------|
D|----------------------|
A|----------------------|
E|----------------------|

Played after third chorus,its the piano part.
e|-13--11--8--9--6-8-4--2-----1-4-8~---|
B|--------------------------2----------|
G|-------------------------------------|
D|-------------------------------------|
A|-------------------------------------|
E|-------------------------------------|


Well that is it.I think its pretty close also please rate and comment.
Thnx :)
Добавлено: 18.11.2013
Другие материалы по этой песне:
  • Аккорды и текст

Страница создана 02.10.2013
http://primanota.ru/taking-back-sunday/didnt-see-that-coming-chords.htm
Привет, Гость.
Предлагаем пройти революционный курс по гитаре.
Подарок от PrimaNota.Ru, забирай!