PrimaNota.ru - самый крупный в мире бесплатный архив песенных текстов, аккордов, табулатур и нот


Taking Back Sunday - Cut up angels - таба, видео

Регистрация Запомнить меня
Войти через:  Facebook Google Twitter Vk Yandex Mail.ru

Taking Back Sunday - Cut up angels - таба, видео

Печатать
Просмотров: 61


-------------------------------------------------------------------------------
			     Cut Up Angels - Taking Back Sunday
-------------------------------------------------------------------------------
Tabbed by: Josh
Email:

Tuning: Standard

e|---------------------------------------------------------------------------|
B|-7-7-----------7-7-----------7-7-----------8-8-----------------------------|
G|--7-7--6-7-6-7--7-7--6-7-6-7--7-7--6-7-6-7--7-7--6-7-6-7-------------------|
D|---------------------------------------------------------------------------|
A|---------------------------------------------------------------------------|
E|---------------------------------------------------------------------------|

Verse: Repeat

e|---------------------------------------------------------------------------|
B|---------------------------------------------------------------------------|
G|-7--7-6-4--4---------------------------------------------------------------|
D|-7--7-6-4--4-2-4-4--7-7-7-7------------------------------------------------|
A|-5--5-4-2--2-2-4-4--7-7-7-7------------------------------------------------|
E|-------------0-2-2--5-5-5-5------------------------------------------------|

Chours

e|---------------------------------------------------------------------------|
B|---------------------------------------------------------------------------|
G|-9----6----------------------------------------------------------------------|
D|-9-9--6-7----------------------------------------------------------------------|
A|-7-9--4-7----------------------------------------------------------------------|
E|---7----5--------------------------------------------------------------------|

Verse 2 Repeat

e|---------------------------------------------------------------------------|
B|---------------------------------------------------------------------------|
G|-7--7-6-4--4--------------------------------------------------------------------|
D|-7--7-6-4--4-2-4-4--7-7-7-------------------------------------------------------------|
A|-5--5-4-2--2-2-4-4--7-7-7-------------------------------------------------------------|
E|-------------0-2-2--5-5-5--------------------------------------------------------|


| /  slide up
|   slide down
| h  hammer-on
| p  pull-off
| ~  vibrato
| +  harmonic
| x  Mute note
===============================================================================




Добавлено: 13.11.2013
Другие материалы по этой песне:
  • Аккорды и текст

Страница создана 13.11.2013
http://primanota.ru/taking-back-sunday/cut-up-angels-chords.htm
Привет, Гость.
Предлагаем пройти революционный курс по гитаре.
Подарок от PrimaNota.Ru, забирай!