PrimaNota.ru - самый крупный в мире бесплатный архив песенных текстов, аккордов, табулатур и нот


Takida - The Fear - таба, видео

Регистрация Запомнить меня
Войти через:  Facebook Google Twitter Vk Yandex Mail.ru

Takida - The Fear - таба, видео

Печатать
Просмотров: 192
Уроки эстрадного вокала в Санкт-Петербурге
-------------------------------------------------------------------------------
                             The Fear - Takida
-------------------------------------------------------------------------------
Tabbed by: Matt
E-mail: Matthew.a725@gmail.com

Tuning: Standard (E A D G B e)

Intro

- Synth

e|-15-15---------------------------------------------------------------------|
B|------15-15-16-16-13-13-15-15-----------13-13------------------------------|
G|-----------------------------14-14-15-15-----------------------------------|
D|---------------------------------------------------------------------------|
A|---------------------------------------------------------------------------|
E|---------------------------------------------------------------------------|

- Guitar 1

e|---------------------------------------------------------------------------|
B|---------------------------------------------------------------------------|
G|---------------------------------------------------------------------------|
D|-(5)-----------------------------------------------------------------------|
A|-(5)-----------------------------------------------------------------------|
E|-(3)-----------------------------------------------------------------------|

Chorus

- Guitar 2
              1,2,3.  4.
e|-------1-----------|-------1----3------------------------------------------|
B|-------------------|------------------3-----3-3/4\3------------------------|
G|-2-3-2-----2----3--|-2-3-2-------------------------------------------------|
D|-------------------|-------------------------------------------------------|
A|-------------------|-------------------------------------------------------|
E|-------------------|-------------------------------------------------------|

- Guitar 1

e|---------------------------------------------------------------------------|
B|---------------------------------------------------------------------------|
G|-------------------8-------------------------------------------------------|
D|-5-----------------8-------------------8-----------------3-----------------|
A|-5-----------------6-------------------8-----------------3-----------------|
E|-3-------------------------------------6-----------------1-----------------|

Verses

- Guitar 2
Riff 1
e|---------------------------------------------------------------------------|
B|---------------------------------------------------------------------------|
G|----3---3\2-----x----2---2-------------------3--3\2------x---5---5---------|
D|-----------------------------3----3--3/5----------------------------3------|
A|---------------------------------------------------------------------------|
E|-3-3--------------------------------------3-3------------------------------|

--|pm|-------------------------------------|pm|-------------------------------

e|---------------------------------------------------------------------------|
B|---------------------------------------------------------------------------|
G|-2-2/3---------------------------------------------------------------------|
D|---------------------------------------------------------------------------|
A|---------------------------------------------------------------------------|
E|---------------------------------------------------------------------------|

- Guitar 1
Riff 2
e|---------------------------------------------------------------------------|
B|---------------------------------------------------------------------------|
G|---------------------------------------------------------------------------|
D|-3-3/5---------------------------------------------------------------------|
A|---------------------------------------------------------------------------|
E|---------------------------------------------------------------------------|

*Guitar 1 then doubles Guitar 2's riff, except continues to play Riff 2 as ending

Play 8 times, then play Chorus after each Verse, and after Solo

Solo

- Guitar 1

e|---------------------------------------------------------------------------|
B|---------------------------------------------------------------------------|
G|---------------------------------------------------------------------------|
D|-5---5---5--5---5-------------------5-------5---------5--------------------|
A|-5---5---5--5---5-------------------5-------5---------5--------------------|
E|-3---3---3--3---3-------------------3-------3---------3--------------------|
           pm

- Guitar 2 (Soloist)

e|---------------------------------------------------------------------------|
B|---------------------------------------------------------------------------|
G|-----------------------------5---8--7--------------------------------------|
D|------------------0---3---5-----------------------------0--7--5------------|
A|-----------------3-----------------------------------------------6-5-6-5-6-|
E|---------------------------------------------------------------------------|

e|-----------------------------------------------------10--------------------|
B|---------------------------------------8-10-10/11\10---10-10-10\8/10-------|
G|------------------8--7--8b2-------------7--7-------------7--7--------------|
D|----8--7--8----------------------------------------------------------------|
A|-(6)----------(6)----------------------------------------------------------|
E|---------------------------------------------------------------------------|

e|---------------10------8--10--11-10--(10)\8---(8)\6----(6)\5---------------|
B|-8-10-10/11\10---10-10---8--8---8------------------------------------------|
G|--7--7---------------------------------------------------------------------|
D|---------------------------------------------------------------------------|
A|---------------------------------------------------------------------------|
E|---------------------------------------------------------------------------|

e|-8-10-11-------------------------------------------------------------------|
B|--------8-10-11-8-10-11-8-10-11-8-10-11-8-11-10-8---(8)--------------------|
G|---------------------------------------------------------------------------|
D|---------------------------------------------------------------------------|
A|---------------------------------------------------------------------------|
E|---------------------------------------------------------------------------|

Chorus afterwards, then Outro

Outro

e|---------------------------------------------------------------------------|
B|---------------------------------------------------------------------------|
G|---------------------------------------------------------------------------|
D|-5--5---5-5---5------------------------------------------------------------|
A|-5--5---5-5---5------------------------------------------------------------|
E|-3--3---3-3---3------------------------------------------------------------|



************************************

|  /   slide up
|  \   slide down
|  h   hammer-on
|  p   pull-off
|  ~   vibrato
|  +   harmonic
|  x   Mute note
|  b   Bend
|  pb  Pre-bend
|  br  Bend release
|  pbr Pre-bend release
|  brb Bend release bend
() Fade (Turn vol. knob from mute to max on guitar)

************************************
Добавлено: 06.08.2015
Вам также может быть интересно:
Другие материалы по этой песне:
  • Аккорды и текст

Страница создана 06.08.2015
http://primanota.ru/takida/fear-chords.htm
Привет, Гость.
Предлагаем пройти революционный курс по гитаре.
Подарок от PrimaNota.Ru, забирай!