PrimaNota.ru - самый крупный в мире бесплатный архив песенных текстов, аккордов, табулатур и нот


Takeharu Ishimoto - The Price Of Freedom - таба, видео

Регистрация Запомнить меня
Войти через:  Facebook Google Twitter Vk Yandex Mail.ru

Takeharu Ishimoto - The Price Of Freedom - таба, видео

Печатать
Просмотров: 630
the tabs is not yet complete... but I think this is right

robinsonlim_10@yahoo.com

acoustic
e|--3--5--7--8--3---------3--5--7--5--3--2-----------|
B|---------------------------------------------------|
G|---------------------------------------------------|
D|---------------------------------------------------|
A|---------------------------------------------------|
E|---------------------------------------------------|


electric guitar
e|---------------------------------------------------------------------|
B|------------------8--10--------------------------8--10---------------|
G|-----------7--9-----------11--9------------7--9---------11--9--/12---|
D|---7--9-----------------------------7--9-----------------------------|
A|---------------------------------------------------------------------|
E|---------------------------------------------------------------------|
Добавлено: 06.07.2012
Другие материалы по этой песне:

Страница создана 29.04.2012
http://primanota.ru/takeharu-ishimoto/the-price-of-freedom-chords.htm
Привет, Гость.
Предлагаем пройти революционный курс по гитаре.
Подарок от PrimaNota.Ru, забирай!