PrimaNota.ru - самый крупный в мире бесплатный архив песенных текстов, аккордов, табулатур и нот


Takayoshi Ohmura - Tell Me Why - таба, видео

Регистрация Запомнить меня
Войти через:  Facebook Google Twitter Vk Yandex Mail.ru

Takayoshi Ohmura - Tell Me Why - таба, видео

Печатать
Просмотров: 79
Tabbed by: Earl del Mar
Tabbed by ear. Rhythm only. Comment the lead part (if someone knows). I'll give you credit. 

+ - Palm Mute
/ - Ascending Slide
\ - Descending Slide
* - Pinch Harmonic
~ - Let it Ring
b - Bend

(edited)

D#|--------------------|--------------------|
A#|--------------------|--------------------|
F#|--------------------|--------------------|
C#|-------6~----4~-22--|--6~----4~-22-------|
G#|--16\--4~----2~-00--|--4~----2~-00-------|
D#|--16\------0--------|------0--------/19b-|
              +               +

D#|------------------------------|
A#|------------------------------|
F#|------------------------------|
C#|--6------4--------------------|
G#|--4------2----2---------------|
D#|----420----0--0--0-0-2-0-2/4--|
       +++    +

D#|--------------------------------|
A#|--------------------------------|
F#|--------------------2*\1--------|
C#|--6------4---2-----------2------|
G#|--4------2---0--2-4--------4-2--|
D#|----420----0--------------------|
       +++    +      +      + + +

D#|------------------------------|
A#|------------------------------|
F#|------------------------------|
C#|--6-------4-------------------|
G#|--4-------2----2--------------|
D#|----420-----0--0-0-0-2-0-2/4--|
       +++   +

D#|---------------------------------|
A#|---------------------------------|
F#|--------------------2*\1---------|
C#|--6------4---2-----------2-------|
G#|--4------2---0--2-4--------2*----|
D#|----420----0---------------------|
       +++    +      +      +

D#|----------------------------|
A#|----------------------------|
F#|----------------------------|
C#|-------2*-------------------|---|
G#|--424-----424--2~-----------|   | 
D#|---------------0~-2-0-2/4---|   | 
     +++     +++                   | x2
                                   |    
D#|--------------------------|     |
A#|--------------------------|     |
F#|--------------------------|-----
C#|-------2*-----------4~----|
G#|--424-----424-2~----2~----|
D#|--------------0~--0-------|
     +++     +++     +

D#|--------------------------|
A#|--------------------------|
F#|--------------------------|
C#|-66----------66--------4~-| x2
G#|-44----------44------2-2~-|
D#|---------------------0----|

D#|----------------------------|
A#|----------------------------|
F#|----------------------------|
C#|-------2*-------------------|
G#|--424-----424--2~-----------|    
D#|---------------0~-2-0-2/4---|    
     +++     +++                  
                                       
D#|--------------------------|    
A#|--------------------------|    
F#|--------------------------|
C#|-------2*-----------4~----|
G#|--424-----424-2~----2~----|
D#|--------------0~--0-------|
     +++     +++     +

D#|--------------------------|
A#|--------------------------|
F#|--------------------------|
C#|-66----------66--------4~-| x2
G#|-44----------44------2-2~-|
D#|-----2-0-2/4---------0----|

D#|-----------------------------------|
A#|-----------------------------------|
F#|---------------8----9---9*---------|
C#|-2~--4~-4/6----6----6----------6*--|
G#|-0~--2~-2/4-44-4-44-4-4-----0------|
D#|-----------------------------------|
               ++   ++         +

D#|------------------------------------|
A#|------------------------------------|
F#|------------------------------------|
C#|-2~---4~-------2*-------------------|
G#|-0~---2~---424----424--2~-----------|    
D#|-----------------------0~-2-0-2/4---|    
              +++    +++ 

D#|-----------------------------------|
A#|-----------------------------------|
F#|---------------8----9---9*---------|
C#|-2~--4~-4/6----6----6----------6*--|
G#|-0~--2~-2/4-44-4-44-4-4-----0------|
D#|-----------------------------------|
               ++   ++         +   

D#|---------------------------------------------|
A#|---------------------------------------------|
F#|-------6--6/8--8-----------------------------|
C#|-------4--4/6--6-----------2~--4-------------|
G#|-4--------------------6*---0~--2-(pickslide)-|
D#|-2-22-------------444------------------------|
      ++             +++

D#|-----------------------------------------|
A#|-----------------------------------------|
F#|-------------------------------------5*--|
C#|-6------4---2~-------------9--4----------|
G#|-4------2---0~------7---2--7--2--222-----|
D#|---420----0-----545-----0----------------|
      +++    +                      +++

D#|-----------------------------------|
A#|-----------------------------------|
F#|-----------------------------------|
C#|-6------4---2~-------------9--4~---|
G#|-4------2---0~------7---2--7--2~---|
D#|---420----0-----545-----0----------|
      +++    +                       

D#|----------------------------|
A#|----------------------------|
F#|----------------------------|
C#|-------2*-------------------|
G#|--424-----424--2~-----------|    
D#|---------------0~-2-0-2/4---|    
     +++     +++                  
                                       
D#|--------------------------|    
A#|--------------------------|    
F#|--------------------------|
C#|-------2*-----------4~----|
G#|--424-----424-2~----2~----|
D#|--------------0~--0-------|
     +++     +++     +

D#|--------------------------|
A#|--------------------------|
F#|--------------------------|
C#|-66----------66--------4~-| 
G#|-44----------44------2-2~-|
D#|-----2-0-2/4---------0----|

D#|--------------------------|
A#|--------------------------|
F#|--------------------------|
C#|-66----------66~-------4~-| 
G#|-44----------44~-----2-2~-|
D#|-----2-0-2/4---------0----|
                        +

D#|-----------------------------------|
A#|-----------------------------------|
F#|---------------8----9---9*---------|
C#|-2~--4~-4/6----6----6----------6*--|
G#|-0~--2~-2/4-44-4-44-4-4-----0------|
D#|-----------------------------------|
               ++   ++         +

D#|------------------------------------|
A#|------------------------------------|
F#|------------------------------------|
C#|-2~---4~-------2*-------------------|
G#|-0~---2~---424----424--2~-----------|    
D#|-----------------------0~-2-0-2/4---|    
              +++    +++ 

D#|-----------------------------------|
A#|-----------------------------------|
F#|---------------8----9---9*---------|
C#|-2~--4~-4/6----6----6----------6*--|
G#|-0~--2~-2/4-44-4-44-4-4-----0------|
D#|-----------------------------------|
               ++   ++         +   

D#|---------------------------------------------|
A#|---------------------------------------------|
F#|-------6--6/8--8-----------------------------|
C#|-------4--4/6--6-----------2~--4-------------|
G#|-4--------------------6*---0~--2-(pickslide)-|
D#|-2-22-------------444------------------------|
      ++             +++

D#|-----------------------------------------|
A#|-----------------------------------------|
F#|-------------------------------------5*--|
C#|-6------4---2~-------------9--4----------|---
G#|-4------2---0~------7---2--7--2--222-----|   |
D#|---420----0-----545-----0----------------|   |
      +++    +                      +++         |
                                                | x2
D#|-----------------------------------|         |
A#|-----------------------------------|         |
F#|-----------------------------------|---------
C#|-6------4---2~-------------9--4~---|
G#|-4------2---0~------7---2--7--2~---|
D#|---420----0-----545-----0----------|
      +++    +     

D#|----------------------------|
A#|----------------------------|
F#|----------------------------|
C#|-------2*-------------------|---
G#|--424-----424--2~-----------|   | 
D#|---------------0~-2-0-2/4---|   | 
     +++     +++                   | x4
                                   |    
D#|--------------------------|     |
A#|--------------------------|     |
F#|--------------------------|-----
C#|-------2*-----------4~----|
G#|--424-----424-2~----2~----|
D#|--------------0~--0-------|
     +++     +++     +

D#|-----------------------------------------------|------|
A#|-----------------------------------------------|------|
F#|-----------------------------------------------|------|
C#|--2~----------2~----6~----2~--------2~---4~----|------|
G#|--0~----2~----0~----4~----0~---2~---0~---2~----|------|
D#|--------0~---------------------0~--------------|-/19b-|

D#|-----------------------------------------|
A#|-----------------------------------------|
F#|-------------------------------------5*--|
C#|-6------4---2~-------------9--4----------|---
G#|-4------2---0~------7---2--7--2--222-----|   |
D#|---420----0-----545-----0----------------|   |
      +++    +                      +++         |
                                                | x2
D#|-----------------------------------|         |
A#|-----------------------------------|         |
F#|-----------------------------------|---------
C#|-6------4---2~-------------9--4~---|
G#|-4------2---0~------7---2--7--2~---|
D#|---420----0-----545-----0----------|
      +++    +     

D#|---------------------------|
A#|---------------------------|
F#|---------------------------|
C#|-6-----4---6-----4-4/6\4---|
G#|-4-----2---4-----2-2/4\2---|
D#|---420-------420-----------|
      +++       +++

D#|-----------------------------|
A#|-----------------------------|
F#|-----------------------------|
C#|-6-----4---6-----4-----------|
G#|-4-----2---4-----2-----------|
D#|---420-------420----2-0-2/4--|
      +++       +++

D#|---------------------------|
A#|---------------------------|
F#|---------------------------|
C#|-6-----4---6-----4-4/6\4---|
G#|-4-----2---4-----2-2/4\2---|
D#|---420-------420-----------|
      +++       +++

D#|---------------------------|
A#|---------------------------|
F#|---------------------------|
C#|-6-----4---6-----4---------|
G#|-4-----2---4-----2----2*---|
D#|---420-------420---2-------|
      +++       +++
Добавлено: 13.12.2015
Другие материалы по этой песне:
  • Аккорды и текст

Страница создана 13.12.2015
http://primanota.ru/takayoshi-ohmura/tell-me-why-chords.htm
Привет, Гость.
Предлагаем пройти революционный курс по гитаре.
Подарок от PrimaNota.Ru, забирай!