PrimaNota.ru - самый крупный в мире бесплатный архив песенных текстов, аккордов, табулатур и нот


Takacha - Movin - аккорды и текст, таба, видео

Регистрация Запомнить меня
Войти через:  Facebook Google Twitter Vk Yandex Mail.ru

Takacha - Movin - аккорды и текст, таба, видео

Печатать
Просмотров: 97
Уроки эстрадного вокала в Санкт-Петербурге
Movin
Takacha
Takacha
"Movin'"

Good Japanese song to me. Didn't see a tab for this
song so I decided to make one using only chords.

Standard Tuning (e B G D A e)

Chords are C, Em, Am, F, G or G Power Chord  (Whatever G you're
        e--0--0---0---1--3----3---|           ok with. ya know.
        B--1--0---1---1--0----3---|           I'm usin' a G power chord.)
        G--0--0---2---2--0----4---|
        D--2--2---2---3--0----5---|
        A--3--2---0---3--2----5---|
        E-----0-------1--3----3---|

Intro/Chorus (Do this or just strum the chords however you want)

   C    Em       Am

e--0-0--0-00--0--0--0--0----0-0--0-00--0--0--0--0----|
B--1-1--0-03--1--1--1--2----1-1--0-03--1--1--1--2----|
G--0-0--0-00--0h22--0h20h2--0-0--0-00--0h22--0h20h2--|
D--2-2--2-22--2--2--2--2----2-2--2-22--2--2--2--2----|
A--3-3--2-22--0--0--0--0----3-3--2-22--0--0--0--0----|
E-------0-00---------------------0-00----------------|

e--0-0--0-00--0--0--0--0----0-0--0-00--0--0--0--0----|
B--1-1--0-03--1--1--1--2----1-1--0-03--1--1--1--2----|
G--0-0--0-00--0h22--0h20h2--0-0--0-00--0h22--0h20h2--|
D--2-2--2-22--2--2--2--2----2-2--2-22--2--2--2--2----|
A--3-3--2-22--0--0--0--0----3-3--2-22--0--0--0--0----|
E-------0-00---------------------0-00----------------|

Verse (Make your own rhythm)

   C   Em  Am

e--0~--0~--0~--0~--0~--0~--0~--0~--|
B--1~--0~--1~--1~--1~--0~--1~--1~--|
G--0~--0~--2~--2~--0~--0~--2~--2~--|
D--2~--2~--2~--2~--2~--2~--2~--2~--|
A--3~--2~--0~--0~--2~--2~--0~--0~--|
E------0~--------------0~----------|

e--0~--0~--0~--0~--0~--0~--0~--0~--|
B--1~--0~--1~--1~--1~--0~--1~--1~--|
G--0~--0~--2~--2~--0~--0~--2~--2~--|
D--2~--2~--2~--2~--2~--2~--2~--2~--|
A--3~--2~--0~--0~--3~--2~--0~--0~--|
E------0~--------------0~----------|

   F           Em

e--1~-1~-1~-1~-0~-0~-0~-0~--|
B--1~-1~-1~-1~-0~-0~-0~-0~--|
G--2~-2~-2~-2~-0~-0~-0~-0~--|
D--3~-3~-3~-3~-2~-2~-2~-2~--|
A--3~-3~-3~-3~-2~-2~-2~-2~--|
E--1~-1~-1~-1~-0~-0~-0~-0~--|

                     G Power Chord

e--1~-1~-1~-1~-0~-0~-3~-3~--|
B--1~-1~-1~-1~-0~-0~-3~-3~--|
G--2~-2~-2~-2~-0~-0~-4~-4~--|
D--3~-3~-3~-3~-2~-2~-5~-5~--|
A--3~-3~-3~-3~-2~-2~-5~-5~--|
E--1~-1~-1~-1~-0~-0~-3~-3~--|

   C   Em  Am

e--0~--0~--0~--0~--0~--0~--0~--0~--|
B--1~--0~--1~--1~--1~--0~--1~--1~--|
G--0~--0~--2~--2~--0~--0~--2~--2~--|
D--2~--2~--2~--2~--2~--2~--2~--2~--|
A--3~--2~--0~--0~--2~--2~--0~--0~--|
E------0~--------------0~----------|

Intro/Chorus

   C    Em       Am

e--0-0--0-00--0--0--0--0----0-0--0-00--0--0--0--0----|
B--1-1--0-03--1--1--1--2----1-1--0-03--1--1--1--2----|
G--0-0--0-00--0h22--0h20h2--0-0--0-00--0h22--0h20h2--|
D--2-2--2-22--2--2--2--2----2-2--2-22--2--2--2--2----|
A--3-3--2-22--0--0--0--0----3-3--2-22--0--0--0--0----|
E-------0-00---------------------0-00----------------|

e--0-0--0-00--0--0--0--0----0-0--0-00--0--0--0--0----|
B--1-1--0-03--1--1--1--2----1-1--0-03--1--1--1--2----|
G--0-0--0-00--0h22--0h20h2--0-0--0-00--0h22--0h20h2--|
D--2-2--2-22--2--2--2--2----2-2--2-22--2--2--2--2----|
A--3-3--2-22--0--0--0--0----3-3--2-22--0--0--0--0----|
E-------0-00---------------------0-00----------------|

Pre-Verse

   C   Em  Am
e--0~--0~--0~--0~--0~--0~--0~--0~--|
B--1~--0~--1~--1~--1~--0~--1~--1~--|
G--0~--0~--2~--2~--0~--0~--2~--2~--|
D--2~--2~--2~--2~--2~--2~--2~--2~--|
A--3~--2~--0~--0~--2~--2~--0~--0~--|
E------0~--------------0~----------|

Verse 2

   C   Em  Am

e--0~--0~--0~--0~--0~--0~--0~--0~--|
B--1~--0~--1~--1~--1~--0~--1~--1~--|
G--0~--0~--2~--2~--0~--0~--2~--2~--|
D--2~--2~--2~--2~--2~--2~--2~--2~--|
A--3~--2~--0~--0~--2~--2~--0~--0~--|
E------0~--------------0~----------|

e--0~--0~--0~--0~--0~--0~--0~--0~--|
B--1~--0~--1~--1~--1~--0~--1~--1~--|
G--0~--0~--2~--2~--0~--0~--2~--2~--|
D--2~--2~--2~--2~--2~--2~--2~--2~--|
A--3~--2~--0~--0~--3~--2~--0~--0~--|
E------0~--------------0~----------|

   F           Em

e--1~-1~-1~-1~-0~-0~-0~-0~--|
B--1~-1~-1~-1~-0~-0~-0~-0~--|
G--2~-2~-2~-2~-0~-0~-0~-0~--|
D--3~-3~-3~-3~-2~-2~-2~-2~--|
A--3~-3~-3~-3~-2~-2~-2~-2~--|
E--1~-1~-1~-1~-0~-0~-0~-0~--|

                     G Power Chord

e--1~-1~-1~-1~-0~-0~-3~-3~--|
B--1~-1~-1~-1~-0~-0~-3~-3~--|
G--2~-2~-2~-2~-0~-0~-4~-4~--|
D--3~-3~-3~-3~-2~-2~-5~-5~--|
A--3~-3~-3~-3~-2~-2~-5~-5~--|
E--1~-1~-1~-1~-0~-0~-3~-3~--|

   C   Em  Am

e--0~--0~--0~--0~--0~--0~--0~--0~--|
B--1~--0~--1~--1~--1~--0~--1~--1~--|
G--0~--0~--2~--2~--0~--0~--2~--2~--|
D--2~--2~--2~--2~--2~--2~--2~--2~--|
A--3~--2~--0~--0~--2~--2~--0~--0~--|
E------0~--------------0~----------|

Intro/Chorus

   C    Em       Am

e--0-0--0-00--0--0--0--0----0-0--0-00--0--0--0--0----|
B--1-1--0-03--1--1--1--2----1-1--0-03--1--1--1--2----|
G--0-0--0-00--0h22--0h20h2--0-0--0-00--0h22--0h20h2--|
D--2-2--2-22--2--2--2--2----2-2--2-22--2--2--2--2----|
A--3-3--2-22--0--0--0--0----3-3--2-22--0--0--0--0----|
E-------0-00---------------------0-00----------------|

e--0-0--0-00--0--0--0--0----0-0--0-00--0--0--0--0----|
B--1-1--0-03--1--1--1--2----1-1--0-03--1--1--1--2----|
G--0-0--0-00--0h22--0h20h2--0-0--0-00--0h22--0h20h2--|
D--2-2--2-22--2--2--2--2----2-2--2-22--2--2--2--2----|
A--3-3--2-22--0--0--0--0----3-3--2-22--0--0--0--0----|
E-------0-00---------------------0-00----------------|

Pre-Verse

   C   Em  Am

e--0~--0~--0~--0~--0~--0~--0~--0~--|
B--1~--0~--1~--1~--1~--0~--1~--1~--|
G--0~--0~--2~--2~--0~--0~--2~--2~--|
D--2~--2~--2~--2~--2~--2~--2~--2~--|
A--3~--2~--0~--0~--2~--2~--0~--0~--|
E------0~--------------0~----------|

Verse 3

   C   Em  Am

e--0~--0~--0~--0~--0~--0~--0~--0~--|
B--1~--0~--1~--1~--1~--0~--1~--1~--|
G--0~--0~--2~--2~--0~--0~--2~--2~--|
D--2~--2~--2~--2~--2~--2~--2~--2~--|
A--3~--2~--0~--0~--3~--2~--0~--0~--|
E------0~--------------0~----------|

   F

e--1~-1~-1~-1~-0~-0~-0~-0~--|
B--1~-1~-1~-1~-0~-0~-0~-0~--|
G--2~-2~-2~-2~-0~-0~-0~-0~--|
D--3~-3~-3~-3~-2~-2~-2~-2~--|
A--3~-3~-3~-3~-2~-2~-2~-2~--|
E--1~-1~-1~-1~-0~-0~-0~-0~--|

e--1~-1~-1~-1~-0~0~0~0~0~0~0~0~3~3~3~3~3~--|
B--1~-1~-1~-1~-0~0~0~0~0~0~0~0~3~3~3~3~3~--|
G--2~-2~-2~-2~-0~0~0~0~0~0~0~0~4~4~4~4~4~--|
D--3~-3~-3~-3~-2~2~2~2~2~2~2~2~5~5~5~5~5~--|
A--3~-3~-3~-3~-2~2~2~2~2~2~2~2~5~5~5~5~5~--|
E--1~-1~-1~-1~-0~0~0~0~0~0~0~0~3~3~3~3~3~--|

Intro/Chorus

   C    Em       Am

e--0-0--0-00--0--0--0--0----0-0--0-00--0--0--0--0----|
B--1-1--0-03--1--1--1--2----1-1--0-03--1--1--1--2----|
G--0-0--0-00--0h22--0h20h2--0-0--0-00--0h22--0h20h2--|
D--2-2--2-22--2--2--2--2----2-2--2-22--2--2--2--2----|
A--3-3--2-22--0--0--0--0----3-3--2-22--0--0--0--0----|
E-------0-00---------------------0-00----------------|

e--0-0--0-00--0--0--0--0----0-0--0-00--0--0--0--0----|
B--1-1--0-03--1--1--1--2----1-1--0-03--1--1--1--2----|
G--0-0--0-00--0h22--0h20h2--0-0--0-00--0h22--0h20h2--|
D--2-2--2-22--2--2--2--2----2-2--2-22--2--2--2--2----|
A--3-3--2-22--0--0--0--0----3-3--2-22--0--0--0--0----|
E-------0-00---------------------0-00----------------|

e--0-0--0-00--0--0--0--0----0-0--0-00--0--0--0--0----|
B--1-1--0-03--1--1--1--2----1-1--0-03--1--1--1--2----|
G--0-0--0-00--0h22--0h20h2--0-0--0-00--0h22--0h20h2--|
D--2-2--2-22--2--2--2--2----2-2--2-22--2--2--2--2----|
A--3-3--2-22--0--0--0--0----3-3--2-22--0--0--0--0----|
E-------0-00---------------------0-00----------------|

e--0-0--0-00--0--0--0--0----0-0--0-00--0--0--0--0----|
B--1-1--0-03--1--1--1--2----1-1--0-03--1--1--1--2----|
G--0-0--0-00--0h22--0h20h2--0-0--0-00--0h22--0h20h2--|
D--2-2--2-22--2--2--2--2----2-2--2-22--2--2--2--2----|
A--3-3--2-22--0--0--0--0----3-3--2-22--0--0--0--0----|
E-------0-00---------------------0-00----------------|

Basically It's...

Intro/Chorus
Verse 1
Intro/Chorus
Pre-Verse
Verse 2
Intro/Chorus
Pre-Verse
Verse 3
Intro/Chorus

That's all I got.

Enjoy.

Tabbed by X88X

9/11/12
Добавлено: 19.06.2013
Другие материалы по этой песне:
  • Аккорды и текст

Страница создана 19.06.2013
http://primanota.ru/takacha/movin-chords.htm
Привет, Гость.
Предлагаем пройти революционный курс по гитаре.
Подарок от PrimaNota.Ru, забирай!