PrimaNota.ru - самый крупный в мире бесплатный архив песенных текстов, аккордов, табулатур и нот


Taj Mahal - Satisfied N Tickled Too Live - таба, видео

Регистрация Запомнить меня
Войти через:  Facebook Google Twitter Vk Yandex Mail.ru

Taj Mahal - Satisfied N Tickled Too Live - таба, видео

Печатать
Просмотров: 106
-------------------------------------------------------------------------------
                             SONG NAME - Band Name
-------------------------------------------------------------------------------
Tabbed by: Juan Von Burke
E-mail: jonburke@pacbell.net

This is a finger-picking song. Lot of thumb work. Don't need to play all notes from chords,
just listen and watch what he does and follow this tab as a guideline. The notes in () are
sort of flair notes that he doesn't always hit but you can hit at your own discretion.

https://www.youtube.com/watch?v=L21P75dw-RM

Capo on 3rd fret.

Tuning:

Baby now I'm satisfied and tickled too, baby just to know that I'm in love with

e|----(0)-------(0)-----(0)-------(0)------(0)------(0)-----(0)-------(0)----------------|
B|-----1---------1-------1---------1--------1--------1-------1---------1-----------------|
G|-----2---------2-------2---------2--------2--------2-------2---------2-----------------|
D|-----3---------3-------3---------3--------3--------3-------3---------3-----------------|
A|-----x---------x-------x---------x--------x--------x-------x---------x-----------------|
E|-1--------1--------1--------1--------1--------1--------1--------1----------------------|

   You

e|--------------------0---3p0-----3------------------------0---------------------------|
B|-----------1----3------------1------------------1----3-------------------------------|
G|-0----2-------------------------------0-----2----------------------------------------|
D|-------------------------------------------------------------------------------------|
A|-3---------3--------3--------3--------3---------3---------3--------3-----------------|
E|------3---------3-------3---------3---------3--------3--------3---------3------------|

Honey I'm satisfied and tickled too, baby just know that I'm in love with

e|----(0)-------(0)-----(0)-------(0)------(0)------(0)-----(0)-------(0)----------------|
B|-----1---------1-------1---------1--------1--------1-------1---------1-----------------|
G|-----2---------2-------2---------2--------2--------2-------2---------2-----------------|
D|-----3---------3-------3---------3--------3--------3-------3---------3-----------------|
A|-----x---------x-------x---------x--------x--------x-------x---------x-----------------|
E|-1--------1--------1--------1--------1--------1--------1--------1----------------------|

   You

e|--------------------0---3p0-----3------------------------0---------------------------|
B|-----------1----3------------1------------------1----3-------------------------------|
G|-0----2-------------------------------0-----2----------------------------------------|
D|-------------------------------------------------------------------------------------|
A|-3---------3--------3--------3--------3---------3---------3--------3-----------------|
E|------3---------3-------3---------3---------3--------3--------3---------3------------|

             Baby now..I am.....Suga been...I am....I been.....I am.......

e|-----------------------------------------------------------------------------|
B|-----------------------------------------------------------------------------|
G|-3-/-4---0----------3-/-4---0----------3-/-4---0-----------3-/-4---0---------|
D|---------------0------------------0-------------------0-------------------0--|
A|-------2-------2----------2-------2----------2--------2----------2--------2--|
E|-3---------3--------3---------3--------3----------3--------3---------3-------|

   I been....I am....Suga now...I am....I been......Great God she got me

e|---------------------------------------------------------------------3--0-----------|
B|------------------------------------------------------------------------------------|
G|-3-/-4---0----------3-/-4---0----------3-/-4---0------------------------------------|
D|---------------0------------------0-------------------0-----------------------------|
A|-------2-------2----------2-------2----------2--------2----------2---------2--------|
E|-3---------3--------3---------3--------3----------3--------3---------3--------------|

e|--------------------------------------------------------------------------------------|
B|-1-----------------1-----------------1-----------------1------------------------------|
G|0----------------0-----------------0-----------------0--------------------------------|
D|-----2---------2--------2--------2-------2---------2-------2---------2----------------|
A|-3--------3--------3--------3--------3--------3--------3--------3---------------------|
E|--------------------------------------------------------------------------------------|


That's pretty much the song. The rest he's just throwing in little licks and stuff.
The song is in D#. With the capo though, it'll be like you're just playing in C.

************************************

| /   slide up
| \   slide down
| h   hammer-on
| p   pull-off
| ~   vibrato
| +   harmonic
| x   Mute note
| b   Bend
| pb  Pre-bend
| br  Bend release
| pbr Pre-bend release
| brb Bend release bend

************************************
Добавлено: 02.08.2015
Другие материалы по этой песне:
  • Аккорды и текст

Страница создана 02.08.2015
http://primanota.ru/taj-mahal/satisfied-n-tickled-too-live-chords.htm
Привет, Гость.
Предлагаем пройти революционный курс по гитаре.
Подарок от PrimaNota.Ru, забирай!