PrimaNota.ru - самый крупный в мире бесплатный архив песенных текстов, аккордов, табулатур и нот


Taize - Nada Te Turbe - аккорды и текст, таба, видео

Регистрация Запомнить меня
Войти через:  Facebook Google Twitter Vk Yandex Mail.ru

Taize - Nada Te Turbe - аккорды и текст, таба, видео

Печатать
Просмотров: 308
Nada Te Turbe
Taize
-------------------------------------------------------------------------------
                            Nada te turbe - Chants de Taizé
-------------------------------------------------------------------------------
Tabbed by: JM


    Am  Dm7  G C7M   F Bdim  E  E 
e|---0---1---3---0---1--(0)--0---0--|
B|---1---1---0---0---1---3---0---0--|
G|---2---2---0---0---2---4---2---1--|
D|---2---0---0---2---3---3---2---2--|
A|---0---x---2---3---3--(2)--2---2--|
E|---x---x---3---x---1---x---0---0--|



Am      Dm7    G        C7M     F            Bdim  E   E  Am
Nada te turbe  nada te_espante; quien a Dios tiene nada le falta.
Am      Dm7    G        C7M     F    Bdim  E   Am
Nada te turbe, nada te_espante: sólo Dios  bas-ta.







source: http://www.taize.fr/de_article10313.html
Добавлено: 10.09.2015
Другие материалы по этой песне:

Страница создана 15.05.2012
http://primanota.ru/taize/nada-te-turbe-chords.htm
Привет, Гость.
Предлагаем пройти революционный курс по гитаре.
Подарок от PrimaNota.Ru, забирай!