PrimaNota.ru - самый крупный в мире бесплатный архив песенных текстов, аккордов, табулатур и нот


Taina - I Feel Rage - таба, видео

Регистрация Запомнить меня
Войти через:  Facebook Google Twitter Vk Yandex Mail.ru

Taina - I Feel Rage - таба, видео

Печатать
Просмотров: 102
-------------------------------------------------------------------------------
                             I Feel Rage - TAINA
-------------------------------------------------------------------------------
Tabbed by: erik1003
E-mail: 1003rikw@gmai.com

Tuning: Dropped D (DADGBE)

      W                 8x  E   Q     Q    E   E  E   
E||---------------------||---------------------------|
B||---------------------||---------------------------|
G||*-------------------*||--5--/7----10----9--\7-----|
D||*-------------------*||--5--/7----10----9--\7-----|
A||---------------------||--3--/5-----8----7--\5-----|
D||---------------------||------------------------0--|


  PM        PM PM                                    PM  
  E  E   E  E  E   E   Q       E   Q     Q    E   E  E   
----------------------------|---------------------------|
----------------------------|---------------------------|
-----5--/7--------10--\7----|--5--/7----10----9--\7-----|
-----5--/7--------10--\7----|--5--/7----10----9--\7-----|
-----3--/5---------8--\5----|--3--/5-----8----7--\5-----|
--0---------0--0------------|------------------------0--|


  PM      PM PM PM                               PM  
  E  Q    E  E  E  Q       E   Q     Q    E   E  E   
------------------------|---------------------------|
------------------------|---------------------------|
-----5-------------7----|--5--/7----10----9--\7-----|
-----5-------------7----|--5--/7----10----9--\7-----|
-----3-------------5----|--3--/5-----8----7--\5-----|
--0-------0--0--0-------|------------------------0--|


  PM        PM PM                                    PM  
  E  E   E  E  E   E   Q       E   Q     Q    E   E  E   
----------------------------|---------------------------|
----------------------------|---------------------------|
-----5--/7--------10--\7----|--5--/7----10----9--\7-----|
-----5--/7--------10--\7----|--5--/7----10----9--\7-----|
-----3--/5---------8--\5----|--3--/5-----8----7--\5-----|
--0---------0--0------------|------------------------0--|


  PM      PM PM                                                          PM  
  E  Q    E  E  Q.          W                16x   E   Q     Q    E   E  E   
-----------------------||---------------------||----------------------------|
-----------------------||---------------------||----------------------------|
-----5----------5------||*-------------------*||*--5--/7----10----9--\7-----|
-----5----------5------||*-------------------*||*--5--/7----10----9--\7-----|
-----3----------3------||---------------------||---3--/5-----8----7--\5-----|
--0-------0--0---------||---------------------||-------------------------0--|


  PM        PM PM                                    PM  
  E  E   E  E  E   E   Q       E   Q     Q    E   E  E   
----------------------------|---------------------------|
----------------------------|---------------------------|
-----5--/7--------10--\7----|--5--/7----10----9--\7-----|
-----5--/7--------10--\7----|--5--/7----10----9--\7-----|
-----3--/5---------8--\5----|--3--/5-----8----7--\5-----|
--0---------0--0------------|------------------------0--|


  PM      PM PM PM                               PM  
  E  Q    E  E  E  Q       E   Q     Q    E   E  E   
------------------------|---------------------------|
------------------------|---------------------------|
-----5-------------7----|--5--/7----10----9--\7-----|
-----5-------------7----|--5--/7----10----9--\7-----|
-----3-------------5----|--3--/5-----8----7--\5-----|
--0-------0--0--0-------|------------------------0--|


  PM        PM PM                                    PM  
  E  E   E  E  E   E   Q       E   Q     Q    E   E  E   
----------------------------|---------------------------|
----------------------------|---------------------------|
-----5--/7--------10--\7----|--5--/7----10----9--\7-----|
-----5--/7--------10--\7----|--5--/7----10----9--\7-----|
-----3--/5---------8--\5----|--3--/5-----8----7--\5-----|
--0---------0--0------------|------------------------0--|


  PM      PM PM             PM      PM PM      PM      PM PM PM PM PM PM PM     
  E  Q    E  E  Q.          E  Q    E  E  Q    E       E  E  E  E  E  E  E  E   
------------------------||------------------------||---------------------------|
------------------------||------------------------||---------------------------|
-----5----------5------*||-----5----------5-------||*--------------------------|
-----5----------5------*||-----5----------5----0--||*--0--0--0--0--0--0--0-----|
-----3----------3-------||-----3----------3----0--||---0--0--0--0--0--0--0-----|
--0-------0--0----------||--0-------0--0-------0--||---0--0--0--0--0--0--0-----|


                  PM                                                       
  H.           E  E   8x  H.           E  E       E  E  E  E  E  E  E  E   
----------------------||---------------------||---------------------------|
----------------------||---------------------||---------------------------|
---------------------*||---------------------||*--------------------------|
------------------0--*||---------------------||*--------------------------|
------------------0---||---------------------||---------------------------|
------------------0---||------------------0--||---0--0--0--0--0--0--0--0--|


  E  E  E  E  E  E  E  E     E  E  E  E  E  E  E  E   
--------------------------|--------------------------|
--------------------------|--------------------------|
--------------------------|--------------------------|
--------------------------|--------------------------|
--------------------------|--------------------------|
--0--0--0--0--0--0--0--0--|--0--0--0--0--0--0--0--0--|


  E  E  E  E  E  E  E  E     E  E  E  E  E  E  E  E   
--------------------------|--------------------------|
--------------------------|--------------------------|
--------------------------|--------------------------|
--------------------------|--------------------------|
--------------------------|--------------------------|
--0--0--0--0--0--0--0--5--|--5--5--5--5--5--5--5--3--|


  E  E  E  E  E  E  E  E       E  E  E  E  E  E  E  E     W                 
---------------------------||--------------------------|-------------------|
---------------------------||--------------------------|-------------------|
--------------------------*||--------------------------|-------------------|
--------------------------*||--------------------------|-------------------|
---------------------------||--------------------------|-------------------|
--3--3--3--3--3--3--3--0---||--3--3--3--3--3--3--3-----|-------------------|


                        PM    PM        PM PM            
  E   Q     Q    E   E  E     E  E   E  E  E   E   Q     
---------------------------|----------------------------|
---------------------------|----------------------------|
--5--/7----10----9--\7-----|-----5--/7--------10--\7----|
--5--/7----10----9--\7-----|-----5--/7--------10--\7----|
--3--/5-----8----7--\5-----|-----3--/5---------8--\5----|
------------------------0--|--0---------0--0------------|


                        PM    PM      PM PM PM       
  E   Q     Q    E   E  E     E  Q    E  E  E  Q     
---------------------------|------------------------|
---------------------------|------------------------|
--5--/7----10----9--\7-----|-----5-------------7----|
--5--/7----10----9--\7-----|-----5-------------7----|
--3--/5-----8----7--\5-----|-----3-------------5----|
------------------------0--|--0-------0--0--0-------|


                        PM    PM        PM PM            
  E   Q     Q    E   E  E     E  E   E  E  E   E   Q     
---------------------------|----------------------------|
---------------------------|----------------------------|
--5--/7----10----9--\7-----|-----5--/7--------10--\7----|
--5--/7----10----9--\7-----|-----5--/7--------10--\7----|
--3--/5-----8----7--\5-----|-----3--/5---------8--\5----|
------------------------0--|--0---------0--0------------|


                        PM    PM      PM PM                                 
  E   Q     Q    E   E  E     E  Q    E  E  Q.          W                 8x
---------------------------|-----------------------||---------------------||
---------------------------|-----------------------||---------------------||
--5--/7----10----9--\7-----|-----5----------5------||*-------------------*||
--5--/7----10----9--\7-----|-----5----------5------||*-------------------*||
--3--/5-----8----7--\5-----|-----3----------3------||---------------------||
------------------------0--|--0-------0--0---------||---------------------||


                         PM    PM        PM PM            
   E   Q     Q    E   E  E     E  E   E  E  E   E   Q     
----------------------------|----------------------------|
----------------------------|----------------------------|
*--5--/7----10----9--\7-----|-----5--/7--------10--\7----|
*--5--/7----10----9--\7-----|-----5--/7--------10--\7----|
---3--/5-----8----7--\5-----|-----3--/5---------8--\5----|
-------------------------0--|--0---------0--0------------|


                        PM    PM      PM PM PM       
  E   Q     Q    E   E  E     E  Q    E  E  E  Q     
---------------------------|------------------------|
---------------------------|------------------------|
--5--/7----10----9--\7-----|-----5-------------7----|
--5--/7----10----9--\7-----|-----5-------------7----|
--3--/5-----8----7--\5-----|-----3-------------5----|
------------------------0--|--0-------0--0--0-------|


                        PM    PM        PM PM            
  E   Q     Q    E   E  E     E  E   E  E  E   E   Q     
---------------------------|----------------------------|
---------------------------|----------------------------|
--5--/7----10----9--\7-----|-----5--/7--------10--\7----|
--5--/7----10----9--\7-----|-----5--/7--------10--\7----|
--3--/5-----8----7--\5-----|-----3--/5---------8--\5----|
------------------------0--|--0---------0--0------------|


                        PM    PM      PM PM             PM      PM PM      PM  
  E   Q     Q    E   E  E     E  Q    E  E  Q.          E  Q    E  E  Q    E   
---------------------------|------------------------||------------------------|
---------------------------|------------------------||------------------------|
--5--/7----10----9--\7-----|-----5----------5------*||-----5----------5-------|
--5--/7----10----9--\7-----|-----5----------5------*||-----5----------5----0--|
--3--/5-----8----7--\5-----|-----3----------3-------||-----3----------3----0--|
------------------------0--|--0-------0--0----------||--0-------0--0-------0--|


    PM PM PM PM PM PM PM                       PM                          
    E  E  E  E  E  E  E  E     H.           E  E   8x  H.           E  E   
|---------------------------|----------------------||---------------------|
|---------------------------|----------------------||---------------------|
|*--------------------------|---------------------*||---------------------|
|*--0--0--0--0--0--0--0-----|------------------0--*||---------------------|
|---0--0--0--0--0--0--0-----|------------------0---||---------------------|
|---0--0--0--0--0--0--0-----|------------------0---||------------------0--|


    E  E  E  E  E  E  E  E     E  E  E  E  E  E  E  E   
|---------------------------|--------------------------|
|---------------------------|--------------------------|
|*--------------------------|--------------------------|
|*--------------------------|--------------------------|
|---------------------------|--------------------------|
|---0--0--0--0--0--0--0--0--|--0--0--0--0--0--0--0--0--|


  E  E  E  E  E  E  E  E     E  E  E  E  E  E  E  E   
--------------------------|--------------------------|
--------------------------|--------------------------|
--------------------------|--------------------------|
--------------------------|--------------------------|
--------------------------|--------------------------|
--0--0--0--0--0--0--0--0--|--0--0--0--0--0--0--0--5--|


  E  E  E  E  E  E  E  E     E  E  E  E  E  E  E  E     
--------------------------|---------------------------||
--------------------------|---------------------------||
--------------------------|--------------------------*||
--------------------------|--------------------------*||
--------------------------|---------------------------||
--5--5--5--5--5--5--5--3--|--3--3--3--3--3--3--3--0---||


                                                                         PM  
  E  E  E  E  E  E  E  E     W                     E   Q     Q    E   E  E   
--------------------------|-------------------||----------------------------|
--------------------------|-------------------||----------------------------|
--------------------------|-------------------||*--5--/7----10----9--\7-----|
--------------------------|-------------------||*--5--/7----10----9--\7-----|
--------------------------|-------------------||---3--/5-----8----7--\5-----|
--3--3--3--3--3--3--3-----|-------------------||-------------------------0--|


  PM        PM PM                                    PM  
  E  E   E  E  E   E   Q       E   Q     Q    E   E  E   
----------------------------|---------------------------|
----------------------------|---------------------------|
-----5--/7--------10--\7----|--5--/7----10----9--\7-----|
-----5--/7--------10--\7----|--5--/7----10----9--\7-----|
-----3--/5---------8--\5----|--3--/5-----8----7--\5-----|
--0---------0--0------------|------------------------0--|


  PM      PM PM PM                               PM  
  E  Q    E  E  E  Q       E   Q     Q    E   E  E   
------------------------|---------------------------|
------------------------|---------------------------|
-----5-------------7----|--5--/7----10----9--\7-----|
-----5-------------7----|--5--/7----10----9--\7-----|
-----3-------------5----|--3--/5-----8----7--\5-----|
--0-------0--0--0-------|------------------------0--|


  PM        PM PM                                    PM  
  E  E   E  E  E   E   Q       E   Q     Q    E   E  E   
----------------------------|---------------------------|
----------------------------|---------------------------|
-----5--/7--------10--\7----|--5- /7----10----9--\7-----|
-----5--/7--------10--\7----|--5--/7----10----9--\7-----|
-----3--/5---------8--\5----|--3--/5-----8----7--\5-----|
--0---------0--0------------|------------------------0--|


  PM      PM PM           
  E  Q    E  E  Q.        
------------------------||
------------------------||
-----5----------5------*||
-----5----------5------*||
-----3----------3-------||
--0-------0--0----------||




Duration Legend
---------------
W - whole
H - half
Q - quarter
E - 8th
S - 16th
T - 32nd
X - 64th
. - note dotted
|-n-|  - n-tuplets


Tablature Legend
----------------
L - tied note
x - dead note
g - grace note
(n) - ghost note
> - accentuded note
NH - natural harmonic
AH - artificial harmonic
TH - tapped harmonic
SH - semi harmonic
PH - pitch harmonic
h - hammer on
p - pull off
b - bend
br - bendRelease
pb - preBend
pbr - preBendRelease
brb - bendReleaseBend
\n/ - tremolo bar dip
\n - tremolo bar dive
-/n - tremolo bar Release up
/n\ - tremolo bar inverted dip
/n - tremolo bar return
-\n - tremolo bar Release down
S - shift slide
s - legato slide
/ -  slide into from below or out of upwards
\ -  slide into from above or out of downwards
~ - vibrato
W - wide vibrato
tr - trill
TP - tremolo picking
T - tapping
S - slap
P - pop
< - fade in
^ - brush up
v - brush down
Tuning: Dropped D

Добавлено: 04.12.2015
Вам также может быть интересно:
Другие материалы по этой песне:

Страница создана 04.12.2015
http://primanota.ru/taina/i-feel-rage-chords.htm
Привет, Гость.
Предлагаем пройти революционный курс по гитаре.
Подарок от PrimaNota.Ru, забирай!