PrimaNota.ru - самый крупный в мире бесплатный архив песенных текстов, аккордов, табулатур и нот


Tad - Throat Locust - таба, видео

Регистрация Запомнить меня
Войти через:  Facebook Google Twitter Vk Yandex Mail.ru

Tad - Throat Locust - таба, видео

Печатать
Просмотров: 206
-------------------------------------------------------------------------------
                              THROAT LOCUST – Tad
-------------------------------------------------------------------------------

Tabbed by: brian_s
Email: branimir.sremec@kc.t-com.hr


INTRO:
Riff A
e--------------------------------|
B--------------------------------|
G--------------------------------|  4x
D--0-1-3-0----0-1-3-0----0-1-3---|
A--0-1-3-0----0-1-3-0----0-1-3---|
D--0-1-3-0----0-1-3-0----0-1-3---|


LICK no 1:                rhythm guitar plays Riff A 4x                             
e---------------------------------------------------------|
B---------------------------------------------------------|   
G---10b-10b-10b-10b---7b-7b-7b---5b-5b-5b-5b---7b-7b-7b---|   
D---------------------------------------------------------|     
A---------------------------------------------------------|     
D---------------------------------------------------------|   
                                                              
e--------------------------------|                                    
B--------------------------------|                                    
G---2b-2b-2b-2b-2b-2b-2b-2b-2b---|   
D--------------------------------|
A--------------------------------|
D--------------------------------|


VERSE 1:
e---------------------------------------------------------------|
B---------------------------------------------------------------|
G---7---7---7---7---7---7---7---7-------------------------------|   --
D---7---7---7---7---7---7---7---7---8--8--8--8--8--8--8--8--8---|     | 
A---5---5---5---5---5---5---5---5---8--8--8--8--8--8--8--8--8---|     |
D-----------------------------------8--8--8--8--8--8--8--8--8---|     |  4x
                                                                      |
e--------------------------------|                                    |
B--------------------------------|                                    |
G--------------------------------|   2x    ---------------------------
D--0-1-3-0----0-1-3-0----0-1-3---|
A--0-1-3-0----0-1-3-0----0-1-3---|
D--0-1-3-0----0-1-3-0----0-1-3---|


LICK no 2:                  rhythm guitar plays Riff A 2x
e----------------------------------------------------------|
B----------------------------------------------------------|   
G---10b-10b-10b-10b-10b-10b-10b-10b---\7b-7b-7b-7b-7b-7b---|   
D----------------------------------------------------------|   
A----------------------------------------------------------|
D----------------------------------------------------------|


CHORUS:
e------------- play 3x --------------|------------ play 1x ------------|
B------------------------------------|---------------------------------|
G------------------------------------|---------------------------------|
D---2-2--5-------------------4-5-4---|---2-2--5------------------------|
A---2-2--5---7-5-7---2-2-3-----------|---2-2--5---7-5-7---2-2-5--5-5---|
D---2-2--5---------------------------|---2-2--5------------------------|


LICK no 3:                 rhythm guitar plays Riff A 4x
e---------------------------------------------------------|
B---------------------------------------------------------|
G---10b-10b-10b-10b---7b-7b-7b---5b-5b-5b-5b---7b-7b-7b---|
D---------------------------------------------------------|
A---------------------------------------------------------|
D---------------------------------------------------------|     
                                                                
e-------------------------------------|
B-------------------------------------|
G---10b-10b-10b-10b-10b-10b-10b-10b---|
D-------------------------------------|
A-------------------------------------|
D-------------------------------------|


VERSE 2:
The same as Verse 1


LICK no 4:                            rhythm guitar plays Riff A 2x
e--------------------------------------------------------------------|
B--------------------------------------------------------------------|  
G--------------------------------------------------------------------|  
D---10-10---10-10---10-10---10/12----10-10---10-10---10-10---7h8p7---|
A--------------------------------------------------------------------|
D--------------------------------------------------------------------|


CHORUS:
Play chorus 1x


Play LICK no 3


BRIDGE:
e-------------------------------------|
B-------------------------------------|
G---------7--6----5-------8--11---5---|   6x
D---5-5---7--6----5-------8--11---5---|
A---5-5---5--4----3-------6---8---3---|
D---5-5-------------------------------|


LICK no 5:                  rhythm guitar plays Riff A 6x
e---------------------------------------------------------|
B---------------------------------------------------------|
G---10b-10b-10b-10b---7b-7b-7b---5b-5b-5b-5b---7b-7b-7b---|
D---------------------------------------------------------|
A---------------------------------------------------------|
D---------------------------------------------------------|        
                                                                   
e--------------------------------------------------------------|
B--------------------------------------------------------------|
G---10b-10b-10b-10b-10b-10b-10b-10b----------------------------|
D--------------------------------------7-8-7~--7-8-7~--7-8-7~--|
A--------------------------------------------------------------|
D--------------------------------------------------------------|


h   =  hammer-on
p   =  pull-off
b   =  bend 
\   =  slide up
/   =  slide down
~   =  vibratio
Добавлено: 13.06.2012
Другие материалы по этой песне:
  • Аккорды и текст

Страница создана 13.06.2012
http://primanota.ru/tad/throat-locust-chords.htm
Привет, Гость.
Предлагаем пройти революционный курс по гитаре.
Подарок от PrimaNota.Ru, забирай!