PrimaNota.ru - самый крупный в мире бесплатный архив песенных текстов, аккордов, табулатур и нот


Tad - Stumblin Man - таба, видео

Регистрация Запомнить меня
Войти через:  Facebook Google Twitter Vk Yandex Mail.ru

Tad - Stumblin Man - таба, видео

Печатать
Просмотров: 204
Уроки эстрадного вокала в Санкт-Петербурге
-------------------------------------------------------------------------------
                              STUMBLIN' MAN – Tad
-------------------------------------------------------------------------------

Tabbed by: brian_s
Email: branimir.sremec@kc.t-com.hr


INTRO:
e--------------------------------------------------------|
B--------------------------------------------------------|
G----------------------------3---5---8-------------------|   4x
D---0—--0-0--1---2---4---5---3---5---8-------------------|
A---0---0-0--1---2---4---5---1---3---6----7-7-7--5-3-----|
D---0---0-0--1---2---4---5---------------------------4---|


INTERLUDE:
1st guitar
e---------------------------------------------------|
B---------------------------------------------------|
G---------------------------------------------------|   6x
D---0h2-2-2—-0h2-2-2---0-----0h2-2-2—-0h2-2-2-------|
A---0h2-2-2—-0h2-2-2---------0h2-2-2—-0h2-2-2---1---|
D---0h2-2-2—-0h2-2-2---------0h2-2-2—-0h2-2-2-------|

2nd guitar
e---------------------------------------------------------------------|
B---------------------------------------------------------------------|
G---------------------------------------------------------------------|  2x
D---------------------------------------------------------------------|
A---7b-7b-7b-7b-7b--7b-7b-7b-7b-7b---5b-5b-5b-5b-5b—-5b-5b-5b-5b-5b---|
D---------------------------------------------------------------------|


VERSE:
e------------------------------------------------------|
B------------------------------------------------------|
G------------------------------------------------------|   8x
D---1p0-0-0---1p0-0-0---1p0-0-0---1p0-0-0---1p0—-1p0---|  
A---1p0-0-0---1p0-0-0---1p0-0-0---1p0-0-0---1p0—-1p0---|
D---1p0-0-0---1p0-0-0---1p0-0-0---1p0-0-0---1p0—-1p0---| 


INTERLUDE:
1st guitar
e---------------------------------------------------|
B---------------------------------------------------|
G---------------------------------------------------|   4x
D---0h2-2-2—-0h2-2-2---0-----0h2-2-2—-0h2-2-2-------|
A---0h2-2-2—-0h2-2-2---------0h2-2-2—-0h2-2-2---1---|
D---0h2-2-2—-0h2-2-2---------0h2-2-2—-0h2-2-2-------|

2nd guitar
e---------------------------------------------------------------------|
B---------------------------------------------------------------------|
G---------------------------------------------------------------------|  2x
D---------------------------------------------------------------------|
A---7b-7b-7b-7b-7b--7b-7b-7b-7b-7b---5b-5b-5b-5b-5b—-5b-5b-5b-5b-5b---|
D---------------------------------------------------------------------|


VERSE:
e------------------------------------------------------|
B------------------------------------------------------|
G------------------------------------------------------|   8x
D---1p0-0-0---1p0-0-0---1p0-0-0---1p0-0-0---1p0—-1p0---|  
A---1p0-0-0---1p0-0-0---1p0-0-0---1p0-0-0---1p0—-1p0---|
D---1p0-0-0---1p0-0-0---1p0-0-0---1p0-0-0---1p0—-1p0---| 


CHORUS:
1st guitar
e--------------------------------------------------------|
B--------------------------------------------------------|
G----------------------------3---5---8-------------------|   4x
D---0—--0-0--1---2---4---5---3---5---8-------------------|
A---0---0-0--1---2---4---5---1---3---6----7-7-7--5-3-----|
D---0---0-0--1---2---4---5---------------------------4---|

2nd guitar
e-------------------------------------------------------|
B-------------------------------------------------------|
G---9-------------------------7-----------12b-----------|   4x
D-------------------------------------------------------|
A-------------------------------------------------------|
D-------------------------------------------------------|


INTERLUDE:
1st guitar
e---------------------------------------------------|
B---------------------------------------------------|
G---------------------------------------------------|   4x
D---0h2-2-2—-0h2-2-2---0-----0h2-2-2—-0h2-2-2-------|
A---0h2-2-2—-0h2-2-2---------0h2-2-2—-0h2-2-2---1---|
D---0h2-2-2—-0h2-2-2---------0h2-2-2—-0h2-2-2-------|

2nd guitar
e---------------------------------------------------------------------|
B---------------------------------------------------------------------|
G---------------------------------------------------------------------|  2x
D---------------------------------------------------------------------|
A---7b-7b-7b-7b-7b--7b-7b-7b-7b-7b---5b-5b-5b-5b-5b—-5b-5b-5b-5b-5b---|
D---------------------------------------------------------------------|


OUTRO:
e------------------------------------------------------|
B------------------------------------------------------|
G------------------------------------------------------|   2x
D---1p0-0-0---1p0-0-0---1p0-0-0---1p0-0-0---1p0—-1p0---|  
A---1p0-0-0---1p0-0-0---1p0-0-0---1p0-0-0---1p0—-1p0---|
D---1p0-0-0---1p0-0-0---1p0-0-0---1p0-0-0---1p0—-1p0---| 



h   =  hammer-on
p   =  pull-off
b   =  bend 
Добавлено: 29.05.2012
Другие материалы по этой песне:
  • Аккорды и текст

Страница создана 29.05.2012
http://primanota.ru/tad/stumblin-man-chords.htm
Привет, Гость.
Предлагаем пройти революционный курс по гитаре.
Подарок от PrimaNota.Ru, забирай!