PrimaNota.ru - самый крупный в мире бесплатный архив песенных текстов, аккордов, табулатур и нот


Tad - Emotional Cockroach - таба, видео

Регистрация Запомнить меня
Войти через:  Facebook Google Twitter Vk Yandex Mail.ru

Tad - Emotional Cockroach - таба, видео

Печатать
Просмотров: 118
-------------------------------------------------------------------------------
                            EMOTIONAL COCKROACH - Tad
-------------------------------------------------------------------------------
Tabbed by: brian_s
E-mail:bsremec@unseen.is

Tuning: CGCFAd

Intro:
d|--------|
A|---9b---|
F|---9b---|
C|--------|
G|--------|
C|--------|

Verse:
d|-----------------------------------------------|
A|-----------------------------------------------|
F|-----------------------------------------------|   8x
C|---2---2---0--2--3--------2--2---2-2-3-2-0-3---|
G|---2---2---0--2--3--------2--2---2-2-3-2-0-3---|
C|---2---2---0--2--3--------2--2---2-2-3-2-0-3---|

Chorus:
d|------------------|
A|------------------|
F|------------------|   4x
G|---5+-5+--0---2---|
G|----------0---2---|
C|----------0---2---|

Post chorus:
d|------------------------------------------|
A|------------------------------------------|
F|-----4----2-------------------------------|   4x
G|-------------2---0--2--2----2-2-3-2-0-2---|
G|-------------2---0--2--2----2-2-3-2-0-2---|
C|---5----3----2---0--2--2----2-2-3-2-0-2---|

1st solo:
w/wah wah
Rhythm guitar plays the verse riff 4 x
d|---------------------------------------------|
A|---------------------------------------------|
F|---------------------------------------------|
G|---------------------------------------------|
G|---------------------------------------------|
C|---2~2~2~2~2~2~2~2~2~2~2~2~2~2~2~2~2~2~2~2~--|

Verse:
d|-----------------------------------------------|
A|-----------------------------------------------|
F|-----------------------------------------------|   4x
C|---2---2---0--2--3--------2--2---2-2-3-2-0-3---|
G|---2---2---0--2--3--------2--2---2-2-3-2-0-3---|
C|---2---2---0--2--3--------2--2---2-2-3-2-0-3---|

Chorus:
d|------------------|
A|------------------|
F|------------------|   4x
G|---5+-5+--0---2---|
G|----------0---2---|
C|----------0---2---|

Post chorus:
d|------------------------------------------|           |
A|------------------------------------------|           |
F|-----4----2-------------------------------|      2x   |
G|-------------2---0--2--2----2-2-3-2-0-2---|           |
G|-------------2---0--2--2----2-2-3-2-0-2---|           |
C|---5----3----2---0--2--2----2-2-3-2-0-2---|           |
                                                        |    2x
d|------------------------------------------|           |
A|------------------------------------------|           |
F|------------------------------------------|           |
G|---7-7--9-9--10-10-10-10-10-10-10-10-10---|           |
G|---7-7--9-9--10-10-10-10-10-10-10-10-10---|           |
C|---7-7--9-9--10-10-10-10-10-10-10-10-10---|           |

2nd solo: 
Played over the post chorus
d|-----------------------------------------------|
A|-----------------------------------------------|
F|-------------------------12~~~~~~~~~~~~~~~~~---|
G|---14~~~~~~~~~~~~~~~~~~------------------------|
G|-----------------------------------------------|
C|-----------------------------------------------|

3rd solo:
d|---------------------------------------------------------------------------|
A|---------------------------------------------------------------------------|
F|---------------------------------------------------------------------------|   3x
G|---2-2-2-2---2--2--2-------------------2-2-2-2---2--2--2-------------------|
G|---2-2-2-2---2--2--2-------------------2-2-2-2---2--2--2-------------------|
C|---2-2-2-2---2--2--2-------------------2-2-2-2---2--2--2-------------------|

d|---------------------------------------------------------------------------|  |
A|---------------------------------------------------------------------------|  |
F|---------------------------------------------------------------------------|  |
G|---2-2-2-2---2--2--2-------------------2-2-2-2---2--2--2-------------------|  |
G|---2-2-2-2---2--2--2-------------------2-2-2-2---2--2--2-------------------|  |
C|---2-2-2-2---2--2--2-------------------2-2-2-2---2--2--2-------------------|  |
                                                                                |   4x
d|---------------------------------------------------------------------------|  |
A|---------------------------------------------------------------------------|  |
F|---------------------------------------------------------------------------|  |
G|----------------------------5+----------------------------------5+---------|  |
G|---------------------------------------------------------------------------|  |
C|---------------------------------------------------------------------------|  |

d|---------------------------------------------------------------------------|  |
A|---------------------------------------------------------------------------|  |
F|---------------------------------------------------------------------------|  |
G|---2-2-2-2---2--2--2-------------------2-2-2-2---2--2--2-------------------|  |
G|---2-2-2-2---2--2--2-------------------2-2-2-2---2--2--2-------------------|  |
C|---2-2-2-2---2--2--2-------------------2-2-2-2---2--2--2-------------------|  |
                                                                                |   4x
d|---------------------------------------------------------------------------|  |       
A|---------------------------------------------------------------------------|  |
F|---------------------------------------------------------------------------|  |
G|---------5+-----------------------------------5+---------------------------|  |
G|----------------------------7+-----------------------------------7+--------|  |
C|---------------------------------------------------------------------------|  |

d|---------------------------------------------------------------------------|  |
A|---------------------------------------------------------------------------|  |
F|---------------------------------------------------------------------------|  |
G|---2-2-2-2---2--2--2-------------------2-2-2-2---2--2--2-------------------|  |
G|---2-2-2-2---2--2--2-------------------2-2-2-2---2--2--2-------------------|  |
C|---2-2-2-2---2--2--2-------------------2-2-2-2---2--2--2-------------------|  |
                                                                                |   2x
d|---------------------------------------------------------------------------|  |
A|----------5b-----------------5-5-5-5-5-5-5-5-5-5-5-5-5-5-------------------|  |
F|----------5b-----------------5-5-5-5-5-5-5-5-5-5-5-5-5-5-------------------|  |
G|---------------------------------------------------------------------------|  |
G|---------------------------------------------------------------------------|  |
C|---------------------------------------------------------------------------|  |

d|------------------------------------------|
A|------------------------------------------|
F|-----4----2-------------------------------|   3x
G|-------------2---0--2--2----2-2-3-2-0-2---|
G|-------------2---0--2--2----2-2-3-2-0-2---|
C|---5----3----2---0--2--2----2-2-3-2-0-2---|

d|---------------------------|
A|---------------------------|
F|-----4----2----------------|      
G|-------------2---0--2--2---|
G|-------------2---0--2--2---|
C|---5----3----2---0--2--2---|


************************************

| ~   vibrato
| +   a very grungy pinch harmonic
| b   Bend
************************************
Добавлено: 03.08.2015
Другие материалы по этой песне:
  • Аккорды и текст

Страница создана 03.08.2015
http://primanota.ru/tad/emotional-cockroach-chords.htm
Привет, Гость.
Предлагаем пройти революционный курс по гитаре.
Подарок от PrimaNota.Ru, забирай!