PrimaNota.ru - самый крупный в мире бесплатный архив песенных текстов, аккордов, табулатур и нот


Tad - Delinquent - текст песни, таба, видео

Регистрация Запомнить меня
Войти через:  Facebook Google Twitter Vk Yandex Mail.ru

Tad - Delinquent - текст песни, таба, видео

Печатать
Просмотров: 155
Band: TAD
Song: Delinquent
Album: 8-Way Santa
Tabbed by Anthony DePiano on February 20, 2009

Tuning: Dropped D (DADGBe)

b = bend
Pm... = palm mute
v = vibrato, let note ring


INTRO
e--------------------------|---------------------------|
B--------------------------|---------------------------|
G--------------------------|---------------------------| x 4
D-0-2-0-0-2-0-0--3b--------|--0-2-0-0-2-0-0--3bvvvvvv--|
A-0-2-0-0-2-0-0------------|--0-2-0-0-2-0-0------------|
D-0-2-0-0-2-0-0-----3-2-0--|--0-2-0-0-2-0-0------------|
  Pm...........               Pm...........

VERSE:
e--------------------------|
B--------------------------| Repeat
G--------------------------| as
D--------------------------| called for
A--------------------------|
D--0-3-0-0-3-0-3-1b-3-0-3--|
  Pm.....................

CHORUS:
e--3-----3--2-----2--2--|--3-----3--2-----2--2--|
B--3-----3--2-----2--2--|--3-----3--2-----2--2--|
G--0-----0--4-----4--4--|--0-----0--4-----4--4--| Repeat
D--2-----2--4-----4--4--|--2-----2--4-----4--4--|
A--3-----3--2-----2--2--|--3-----3--2-----2--2--|
D-----------------------|-----------------------|
 “some fun, all night, all day”

You can play it like this too, but I like the sound
Of the X32033 chord better than X35533
e--3-----3--2-----2--2--|--3-----3--2-----2--2--|
B--3-----3--2-----2--2--|--3-----3--2-----2--2--|
G--5-----5--4-----4--4--|--5-----5--4-----4--4--|
D--5-----5--4-----4--4--|--5-----5--4-----4--4--|
A--3-----3--2-----2--2--|--3-----3--2-----2--2--|
D-----------------------|-----------------------|


VERSE

CHORUS
e--3-----3--2-----2--2--|--3-----3--2-----2--2--|
B--3-----3--2-----2--2--|--3-----3--2-----2--2--|
G--0-----0--4-----4--4--|--0-----0--4-----4--4--| Repeat
D--2-----2--4-----4--4--|--2-----2--4-----4--4--|
A--3-----3--2-----2--2--|--3-----3--2-----2--2--|
D-----------------------|-----------------------|
|
GUITAR II
e--------------------|-------------------------|
B--------------------|-------------------------|
G----5-4-2--4-4b5-4--|-4b5-4----4b5-4---4b5-4--|
D--------------------|-------------------------|
A--------------------|-------------------------|
D--------------------|-------------------------|
                      Repeat throughout chorus

INTRO again

BRIDGE:
e--5-5--3-3----------------------------|
B--5-5--3-3----------------------------|
G--7-7--5-5----------------------------|
D--7-7--5-5----------------------------|   x 4
A--5-5--3-3----------------------------|
D--5-5--3-3--3-2-0-2-2-3---3-2-0-6-6-6-|
             Pm.......................
“Gonna have some fun”
“Till I've had enough”

CHORUS
e--3-----3--2-----2--2--|--3-----3--2-----2--2--|
B--3-----3--2-----2--2--|--3-----3--2-----2--2--|
G--0-----0--4-----4--4--|--0-----0--4-----4--4--| Repeat
D--2-----2--4-----4--4--|--2-----2--4-----4--4--|
A--3-----3--2-----2--2--|--3-----3--2-----2--2--|
D-----------------------|-----------------------|
|
GUITAR II
e------------------------|-------------------|
B-------------------8-7--|-------------------|
G---9--9-9-7-9--7-9------|--9--9-9-7-9vvv----|
D------------------------|-------------------|
A------------------------|-------------------|
D------------------------|-------------------|
  Repeat until             End
Добавлено: 16.03.2012
Другие материалы по этой песне:
  • Аккорды и текст

Страница создана 16.03.2012
http://primanota.ru/tad/delinquent-chords.htm
Привет, Гость.
Предлагаем пройти революционный курс по гитаре.
Подарок от PrimaNota.Ru, забирай!