PrimaNota.ru - самый крупный в мире бесплатный архив песенных текстов, аккордов, табулатур и нот


Tad - Boiler Room - таба, видео

Регистрация Запомнить меня
Войти через:  Facebook Google Twitter Vk Yandex Mail.ru

Tad - Boiler Room - таба, видео

Печатать
Просмотров: 266
TAD
Song: Boiler Room
Album: God's Balls
Tabbed by Anthony DePiano on August 19, 2007

Tuning: Standard EADGBe

() = optional to play
PM = palm mute
B = bend note

   E5   F5      E5   G5
e------------------------------------------------------|
B------------------------------------------------------|
G------------------------------------------------------|
D--2-2--3-3-3---2-2--5-5-5---2-2--3-3-3--2-2-5--2-2-5--|
A--2-2--3-3-3---2-2--5-5-5---2-2--3-3-3--2-2-5--2-2-5--|
E--0-0--1-1-1---0-0--3-3-3---0-0--1-1-1--0-0-3--0-0-3—-|
        PM...        PM...        PM...
   Repeat this until Tad starts singing.

  E5      F5                            E B D E G E D B E
e---------------------------------------------------------|
B---------------------------------------------------------|
G---------------------------------------------------------|
D-2--2-2--3----2--2-2--3----2--2-2--3-----------5---------|
A-2--2-2-(3)---2--2-2-(3)---2--2-2-(3)------5-7---7-5-----|
E-0--0-0-(1)---0--0-0-(1)---0--0-0-(1)--0-7-----------7-0-|
  Play 4 times

e------------------------------------------------------|
B------------------------------------------------------|
G------------------------------------------------------|
D--2-2--3-3-3---2-2--5-5-5---2-2--3-3-3--2-2-5--2-2-5--|
A--2-2--3-3-3---2-2--5-5-5---2-2--3-3-3--2-2-5--2-2-5--|
E--0-0--1-1-1---0-0--3-3-3---0-0--1-1-1--0-0-3--0-0-3—-|
        PM...        PM...        PM...
   Play twice

e---------------------------------------------------------|
B---------------------------------------------------------|
G---------------------------------------------------------|
D-2--2-2--3----2--2-2--3----2--2-2--3-----------5---------|
A-2--2-2-(3)---2--2-2-(3)---2--2-2-(3)------5-7---7-5-----|
E-0--0-0-(1)---0--0-0-(1)---0--0-0-(1)--0-7-----------7-0-|
  Play 4 times

e------------------------------------------------------|
B------------------------------------------------------|
G------------------------------------------------------|
D--2-2--3-3-3---2-2--5-5-5---2-2--3-3-3--2-2-5--2-2-5--|
A--2-2--3-3-3---2-2--5-5-5---2-2--3-3-3--2-2-5--2-2-5--|
E--0-0--1-1-1---0-0--3-3-3---0-0--1-1-1--0-0-3--0-0-3—-|
        PM...        PM...        PM...

e----------------------------------------|
B----------------------------------------|
G----------------------------------------|
D----------------------------------------|
A--2-2------2-2-------2-2------2-2-------|
E--0-0--1b--0-0--1b---0-0--1b--0-0--1b---|
   Play a bunch of times

Repeat these movements for the rest of the song.
Добавлено: 11.06.2012
Другие материалы по этой песне:
  • Аккорды и текст

Страница создана 11.06.2012
http://primanota.ru/tad/boiler-room-chords.htm
Привет, Гость.
Предлагаем пройти революционный курс по гитаре.
Подарок от PrimaNota.Ru, забирай!