PrimaNota.ru - самый крупный в мире бесплатный архив песенных текстов, аккордов, табулатур и нот


Tacica - Leo - бас-таба, видео

Регистрация Запомнить меня
Войти через:  Facebook Google Twitter Vk Yandex Mail.ru

Tacica - Leo - бас-таба, видео

Печатать
Просмотров: 19
Уроки эстрадного вокала в Санкт-Петербурге
Авторы музыки: 猪狩翔一
Авторы текста: 猪狩翔一
[Intro]

G|-------------12--11---------------------------12-------11---------9---------11--------|
D|---------9-----------12--14------12\---------------------------7--------9-------------|
A|--5/-10----------------------12-----------10------------------------------------------|
E|---------------------------------------------------10---------------------------------|

G|------12------11------9----------14----12--11------------12------11-------9--------11--|
D|-------------------7-----7/12-------12---------12---------------------7--------9-------|
A|--10-------------------------------------------------10--------------------------------|
E|----------10-------------------------------------------------10------------------------|

G|-----12-----11-----9-----9/-14--11--9h11p7---------------------------------------------|
D|----------------7---------------------------12-11--7/-12-12--12--12--7-7---------------|
A|-10------------------------------------------------------------------------------------|
E|---------10----------------------------------------------------------------------------|


[Verse]

G|---------------------------------------------------------------------------------------|
D|---------------------------------------------------------------------------------------|
A|------5-5-5-5-5-5-5-5------------------------------------------------------------------|
E|-12\------------------5-5-5-5-5-5-5-5-7-7-7-9h10-10-10-2-3-3-3-3-3-3-3-3---------------|

G|---------------------------------------------------------------------------------|
D|---------------------------------------------------------------------------------|
A|-5-5-5-5-5-5-5-5-----------------5-5-5-5-----------------------------------------|
E|-----------------5-5-5-5-5-5-5-5-------------------------------------------------|


[Prechorus]

G|--------------------------------------------------------------------------|
D|--------------------------------------------------------------------------|
A|------------------------------------2-4-5---------------------------------|
E|---12\-3-3/-5-5\-2-2/-3-3-3-3/-5-5---------5\-----------------------------|

G|------------------------------------------------------------------------------------------------|
D|------------------------------------------------------------------------------------------------|
A|------------------------------------------------------------------------------------------------|
E|-3-3/-5-5\-2-2/-3-3-3-3/-5-5-7-7-7-7-7-7-7-7-7-7-7-7-7-7-7-7-5/-7-7-7-7-7-7-7-7-7-7-7-7-7-7-7-7-|

G|-------------------------------------------------------------------------------------|
D|-------------------11-----------12-------9-11-12-----0-------------------------------|
A|-5-----10-9-10-12-----12-13-14-----9-10----------12-----7---7-/9-10-/9-9-9-----------|
E|----3/----------------------------------------------------7--------------------------|


[Chorus]

G|--------------------------------------------------------------------------------------------------|
D|--------------------------------------------------------------------------------------------------|
A|-2-2-2-2-2-2-2-------------------------4-4-4-----------5-5-5-----------------2-4-5-5-5-------5----|
E|---------------2-3-3-3-3-3-3-2-3-5-5-5-------5-6-7-7-7-------2-2-3-3-3-3-3-3-----------5-5-5---5--|

G|----------------------------------------------------------------------------------------|
D|----------------------------------------------------------------------------------------|
A|------------7/12--10----10h12-9----9-7-5-7-9-5--------5-----5---5-----5-----5---5-------|
E|-0-0-3/-7-5----------10---------10-------------5\-3-3---3-3---3---2-2---2-2---2---------|

G|------------------------------------------------------------------------------------|
D|------------------------------------------------------------------------------------|
A|-----7-----7---7-5-5-5-4h5-5-5-5----------------------------------------------------|
E|-5-5---5-5---5-------------------5--------------------------------------------------|


[Verse]

G|---------------------------------------------------------------------------------------|
D|---------------------------------------------------------------------------------------|
A|-----------------5-5-5-5-5-5-5-5-----------------------4h5-5---------------------------|
E|-3-3-3-3-3-3-3-3-----------------5-5-5-5-5-5-5-5-7-7-7-------2-2-3-3-3-3-3-3-3-3-------|

G|---------------------------------------------------------------------------|
D|---------------------------------------------------------------------------|
A|-5-5-5-5-5-5-5-5-----------------5-5-5-5-----------------------------------|
E|-----------------5-5-5-5-5-5-5-5-------------------------------------------|


[Prechorus]

G|-----------------------------------------------------------------------------|
D|-----------------------------------------------------------------------------|
A|------------------------------------2-4-5-/9\--------------------------------|
E|---12\-3-3/-5-5\-2-2/-3-3-3-3/-5-5------------3-3/-5-5\-2-2/-3-3-3-3/-5-5----|

G|---------------------------------------------------------------------------|
D|---------------------------------------------------------------------------|
A|-5-5-5-5-5-5-5-5-5-5-5-5-5-5-5-5-5-5-5-5-5-5-5-5-5-5-5-5-5-5-x-x-x---------|
E|---------------------------------------------------------------------------|


[Chorus]

G|--------------------------------------------------------------------------------------------------|
D|--------------------------------------------------------------------------------------------------|
A|-5-5-5-5-5-5-5-------------------------4-4-4-----------5-5-5-----------------2-4-5-5-5-------5-5--|
E|---------------2-3-3-3-3-3-3-2-3-5-5-5-------5-6-7-7-7-------2-2-3-3-3-3-3-3-----------5-5-5------|


G|---------------------9---------------------------------------------------------------------------|
D|-------9---------/11---11------------------------------------------------------------------------|
A|-7/-10---10-7/-8-----------9\-2-2-2-2-2-2-2----------10-10-9-10-12-12-12-0-0-0-4-0-2-2-2-5-5-5---|
E|--------------------------------------------2-3-3-3/---------------------------------------------|

G|---------------------------------------------------------------------------|
D|---------------------------------------------------------------------------|
A|-----------------2-4-5-5-5------5\-----------------------------------------|
E|-2-2-3-3-3-3-3-3-----------5-5-5---0-0-3/-7-5------------------------------|


[Bridge]

G|-----------------------------------------------------------------------------------------------------|
D|-----------------------------------------------------------------------------------------------------|
A|---------------------------------4-------7-----------------------------------5-5-5-5-4-4-4-----------|
E|-12\-7-7-6-6-5-5-3-5-3-2-2-3-3-5---5-6-9---6-7-7-7-7-6-6-6-6-5-5-5-5-3-3-3-5---------------2-3-3-3-3-|

G|---------------------------------------------------------------------------|
D|---------------------------------------------------------------------------|
A|------------10\------------------------------------------------------------|
E|-3-3-3-3-3/----------------------------------------------------------------|


G|------------14-11-----9---------------------------------------------------------|
D|--------12--------12----9-------------------------------------------------------|
A|--5/-10-------------------7\----------------------------------------------------|
E|--------------------------------------------------------------------------------|


[Verse]

G|-------------------------------------------------------------------------------------------------------|
D|--------------------------------------7-7-7------------------------------------------------------------|
A|----2-2-2-2-2-2-2----------10-10-9-10-------0-0-0-4-0-2-2-2-5-5-5-----------------2-4-5-5-5-0-0-0-5\---|
E|-/\---------------2-3-3-3/----------------------------------------2-2-3-3-3-3-3-3----------------------|


G|---------------------------------------------------------------------------|
D|---------------------------------------------------------------------------|
A|--------------12-----------------------------------------------------------|
E|-0-0-3/-7-5/---------------------------------------------------------------|


[Outro]

G|-----12------11------9-------11------12------11-------9-------11----------------|
D|------------------7------9------------------------7------12---------------------|
A|-10------------------------------10---------------------------------------------|
E|---------10-------------------------------10------------------------------------|


G|----12------11--------9---------11-------12------11-----9------------------------|
D|-----------------7---------9-------------------------7------0--------------------|
A|-10---------------------------------10-------------------------------------------|
E|--------10-----------------------------------10----------------------------------|


************************************

| x  Dead note
| h  Hammer-on
| p  Pull-off
| /  Slide up
| \  Slide down 

************************************
Добавлено: 21.10.2017
Другие материалы по этой песне:
  • Аккорды и текст

Страница создана 21.10.2017
http://primanota.ru/tacica/leo-chords.htm
Привет, Гость.
Предлагаем пройти революционный курс по гитаре.
Подарок от PrimaNota.Ru, забирай!