PrimaNota.ru - самый крупный в мире бесплатный архив песенных текстов, аккордов, табулатур и нот


Taake - Hordalands Doedskvad Part I - таба, видео

Регистрация Запомнить меня
Войти через:  Facebook Google Twitter Vk Yandex Mail.ru

Taake - Hordalands Doedskvad Part I - таба, видео

Печатать
Просмотров: 80
Уроки эстрадного вокала в Санкт-Петербурге

Taake- Hordaland Doedskvad part I

Tuning :stantard EADGBe

"=Tremolo picking

\m/ Helnorsk svart metall !\m/

        Riff 1

e|----------------------------------------------------------------------------------|
B|------------------------------------------10/11/10--------------------------------|
G|-------------------------------------------9/10/9---------------------------------|      x3
D|----10-9-----10-12-----9-7-9-10-12--10-9---7/8 /7------9-7-5-10----9-7-5-4-"-"----|
A|-0--8--7--0--8--10--0--7-5-7-8--10--8--7------------0--7-5-3-8--0--7-5-3-2-5-7----|
E|-"--"--"--"--"--"---"--"-"-"-"---"--"--"------------"--"-"-"-"--"--"-"-"-"-3-5----|


       Riff 2


          2a                                    2b
|----------------------------|         |-------------------------------------|
|----------------------------|         |-------------------------------------|
|--4--4--4--5---0-0-4--------|         |-4--4--4--5---0-0-0------------------|
|--5--4---5--5--4-2-5-7-5-4--|   x1    |-5--4---5--5--4-2-0-------7-5-4------|x1
|--7--5---------3-3-7--------|         |-7--5---------3-3-2------------------|
|--"--"---------"-"-"--------|         |-"--"---------"-"-3------------------|

2a again ,then :   |-------------------------------------|
                   |-----------------7-5-----------------|
                   |----4--4--4--5---5-5-0---------------|
              2c   |----5--4---5--5--5-5-0------7-5-4----|
                   |----7--5--------"--"-2---------------|
                   |----"--"-------------3---------------|


Riff 1 x3
Riff 2 (a->b->a->c) x1 without the last:  D|--7-5-4--|


                     Riff 3
                                       3a
|--------||------------------------------------------|
|--------||------------------------------------------|
|-4-2----||-------------3p2h3p2----------5------4----| x1
|-4-2----||-2-------2-3----------2---------3--2------|
|-2-0----||-0-0-0-0--------------0-0-0-0-------------|
|--------||------------------------------------------|

                    3b                                    3c                
|------------------------------------------------|  |----------------------------------------|
|------------------------------------------------|  |----------------------------------------|
|-------------3p2h3p2----------------------------|  |------------3p2h3p2------------------4--|
|-2-------2-3---------3---5---5-5-5-5-5-5--------|x1|-2-------2-3----------2---------3--2----|x1
|-0-0-0-0-----------------3---3-3-3-3-3-3--------|  |-0-0-0-0--------------0-0-0-0-0---------|
|------------------------------------------------|  |----------------------------------------|

                      3d
|------------------------------------------------------|
|-------------------------------------------13--13--13-|
|-------------3p2h3p2----------------------------------|
|-2-------2-3---------3---5--5--5--5--5--5-------------|x1
|-0-0-0-0-----------------3--3--3--3--3--3-------------|
|------------------------------------------------------|

Then repeat [3a, 3b]x4

Solo
|-------------------------------------------------------------------------------------------------------|
|-------------------14-15-14-----------------------------------------------------------------------10---|
|-14-14-14-14-14-15------------14---15-14--14\---------------------------------9h10p9h10p9h10p9h10------|
|--------------------------------------------------------------7h8p7h8p7h8p7h8------------------------7-|
|----------------------------------------------7h8p7h8p7h8p7h8------------------------------------------|
|-------------------------------------------------------------------------------------------------------|

 Fill A                              Fill B
|---------------------------------||----------------|
|---------------------------------||----------------|
|---------------------------------||----------------|
|-2-5-5-5-5-5-2---5-5-5-5-5-5-----||----------------|
|-3-3-3-3-3-3-3---3-3-3-3-3-3-6-5-||-5-6-5h6p5h6----|
|-----------------------------4-3-||----------------|


    Riff 4
|------------------------------------------|
|------------------------------------------|
|------------------------------------------|
|-5--"--5--2--5--"--"----------------------| x3
|-3--6--3--3--3--6--5--5-6-5h6p5h6---------|
|-"--4--"--"--"--4--3----------------------|

|--------------|
|--------------|
|--------------|
|-5-4-5-5-5-5--|
|-3-2-3-3-3-3--|
|--------------|


    Riff [3a,3b]x5

  Fill C
|------------------|
|------------------|
|------------------|
|-7----------------|
|-5----------------|
|----10------------|


    Riff 5
|----------------------------------------------------------------------------|
|----------------------------------------------------------------------------|
|-2-2-2-2--5-5-5-5--2-2-2--5-5-5-5--7-7-7-7-7/12--12--12--14-14-14-14-14-14--|
|-2-2-2-2--2-2-2-2--2-2-2--2-2-2-2--4-4-4-4-4/9---9---9---10-10-10-10-10-10--|
|-0-0-0-0--3-3-3-3--0-0-0--3-3-3-3--5-5-5-5-5/10--10--10--12-12-12-12-12-12--|
|----------------------------------------------------------------------------|

|----------------------------------------------------------------------------|
|----------------------------------------------------------------------------|
|-----------------------------11-11-11-11-11--5--2-2-2-2-2---5-5-5-----------|
|---9-9-9-9-6-7-7-7-7---7-----12-12-12-12-12--2--2-------2---2-2-2-----------|
|-0-7---------9-------9-9-9-9-9--9--9--9--9---3--0-------0-3-3-3-3-----------|
|----------------------------------------------------------------------------|

|----------------------------------------------------------------------------|
|----------------------------------------------------------------------------|
|--2-2--2-2-5-5-5/7-7-7-7-7-----12--12--14--9--9--14--14--14-----------------|
|--2-2--2-2-2-2-2/4-4-4-4-4-----9---9---10--5--5--10--10--10-9-9-9-9-6-7-----|
|--0-0--0-0-3-3-3/5-5-5-5-5-0---10--10--12--7--7--12--12--12-7---------9-----|
|----------------------------------------------------------------------------|
118                                                                121
|----------------------------------------------------------------------------|
|----------------------------------------------------------------------------|
|---------------11--11-11--11-11--5-5-5--2-2-2-2-2-2--5-5-5-5-5-5-5---2--2---|
|-7-7-7---7-----12--12-12--12-12--2-2-2--2-2-2-2-2-2--2-2-2-2-2-2-2---2--2---|
|-------9-9-9-9-9---9--9---9--9---3-3-3--0-0-0-0-0-0--3-3-3-3-3-3-3---0--0---|
|----------------------------------------------------------------------------|
                                                            125 
|-----------------------------------------------------------------------------|
|-----------------------------------------------------------------------------|
|-5-5-5-5/7-7-7-7-7-7-7--12--14-14-14-14-14-14-14---------------------------11|
|-2-2-2-2/4-4-4-4-4-4-4--9---10-10-10-10-10-10-10-9-9-9-9-6-7--7-7-7--7-----12|
|-3-3-3-3/5-5-5-5-5-5-5--10--12-12-12-12-12-12-12-7---------9-------9-9-9-9-9-|
|-----------------------------------------------------------------------------|
                                                     130
|-----------------------------------------------------------------------------|
|-----------------------------------------------------------------------------|
|-11-11-11-11-11-5--2-2-2-2--5-5-5-5-5-5-5-2-2-5-5-5-5/7-7-7-7-7-7----12-12-14|
|-12-12-12-12-12-2--2-2-2-2--2-2-2-2-2-2-2-2-2-2-2-2-2/4-4-4-4-4-4----9--9--10|
|-9--9--9--9--9--3--0-0-0-0--3-3-3-3-3-3-3-3-3-3-3-3-3/5-5-5-5-5-5----10-10-12|
|-----------------------------------------------------------------------------|

      mnt 132
|-----------------------------------------------------------------------------|
|-----------------------------------------------------------------------------|
|-9-9--14-14-14---------------------------------------------------------2-----|
|-5-5--10-10-10-9-9-9-9-6-7-7-7-7---7-7-9-9-9-9-6-7-7-7-7---7-------2-2-2-----|
|-7-7--12-12-12-7---------9-------9-9-9-7---------9-------9-9---9-9-3-2-0-----|
|-----------------------------------------------------------------------------|



 Fill D-140                                                       Fill E 146

|----------------------------------|                         |---------------------|
|----9--------9--------9--------8--|      Now starts the     |---------------------|
|-10--10---10---10--10--10-----9---|        piano part.      |-9---10--4--7--4-7---|
|--------11-------11------11-10----|x 4                      |-10--7---5--4--5-4---|
|----------------------------------|                         |-0---8---7--5--7-5---|
|----------------------------------|                         |---------"--"--"-"---|      


  Riff 6


   6a 151                                              6b 157
|----------------------------|               |--------------------------------------------|
|----------------------------|               |--------------------------------------------|
|-9----10--9--10--4--7--4--7-| x 3           |-9--10--9--10-------4------7------4-------7-| X 3
|-10---7---10-7---5--4--5--4-|               |-10-7---10-7------5--"---4-"----5-"-----4-"-|
|-0----8---0--8---7--5--7--5-|               |-0--8---0--8----7-"----5-"----7-"-----5-"---|
|-"----"---"--"---"--"--"--"-|               |----------------"------"------"-------"-----|



6c                                              168
|---------------------------------------------------|
|---------------------------------------------------|
|-9--10--9--10---4--7--4-----------------------7-9--|
|-10--7--10--7---5--4--5----------------7-9-10------|
|-0---8--0---8---7--5--7-------5-7-9-10-------------|
|----------------"--"--"-5-7-8----------------------|


Riff 7                                                                        172

|-----------------------------------------------------------------------------------|
|-----------------------------------------------------------------------------------|
|--------7-9-10-9-7-10--------7-9-10-12-10-9-10-----4-5-4h5p4---------7-5-4h5p4--5--|
|-7-9-10-"-"---------"-7-9-10-"-"------------"----5-"-"-------7-----4-"-"------7-"--|
|-"-"--"---------------"-"--"-------------------7-"-----------"---5-"---------------|
|-----------------------------------------------"-----------------"-----------------|
                             174
|---------------------------------------------|
|---------------------------------------------|                Play this a second time, but:
|-----4-5-4h5p4--------------------------7-9--|x 1  
|---5-"-"-------7-----------------7-9-10------|     G|-----7-5-4h5p4--5-|        |--------------------------|
|-7-"-----------"--------5-7-9-10-------------|     D|---4-"-"------7-"-| becomes|--4-5--7-5-4--7-5-4--7-5-4| 
|-"----------------5-7-8----------------------|     A|-5-"--------------|        |5-"-"---------------------| 


Then play this a third and last time with another variation : 181/184
     G|-----7-5-4h5p4--5-|        |-----------4-5-7-5-4-5-4-----|
Now  D|---4-"-"------7-"-| becomes|-----4-5-7-------------------| 
     A|-5-"--------------|        |-5-7-------------------------| 

And finally, after the end of the 3rd Riff 7, outro :

|-----------------------|
|-----------------------|
|---------7-9--------10-|
|--7-9-10---------------|
|-----------------------|
|-----------------------|

And that's all.




Добавлено: 10.04.2016
Другие материалы по этой песне:

Страница создана 20.03.2012
http://primanota.ru/taake/hordalands-doedskvad-part-i-chords.htm
Привет, Гость.
Предлагаем пройти революционный курс по гитаре.
Подарок от PrimaNota.Ru, забирай!