PrimaNota.ru - самый крупный в мире бесплатный архив песенных текстов, аккордов, табулатур и нот


Ta Stoukas - De Gamieste - таба, видео

Регистрация Запомнить меня
Войти через:  Facebook Google Twitter Vk Yandex Mail.ru

Ta Stoukas - De Gamieste - таба, видео

Печатать
Просмотров: 15
-------------------------------------------------------------------------------
                             De gamieste - Ta stoukas
-------------------------------------------------------------------------------
Tabbed by: VakiPitsi

Tuning: Standard (eBGDAE)
 
  Gtr1 (0:00-0:48)
e|---------------------------------------------------------------------------|
B|---------------------------------------------------------------------------|
G|-----5------8------10------------------------------------------------------|
D|-----5------8------10------8-----------------------------------------------|
A|-3-3-3--6-6-6--8-8-8-------8-----------------------------------------------|
E|-----------------------6-6-6-----------------------------------------------|

  Gtr2 (0:08-0:20)
e|---------------------------------------------------------------------------|
B|---------------------------------------------------------------------------|
G|-----------------------------------------------------8----8----10b~~~~-----|
D|-5-3-5--8-6-8--10-8-10/12-10-8-6---5-3-5--8-6-8-10-8---10---10-------------|
A|---------------------------------------------------------------------------|
E|---------------------------------------------------------------------------|
  
  Gtr1 (0:48-1:13)
e|---------------------------------------------------------------------------|
B|---------------------------------------------------------------------------|
G|-10-10-10-10--8--7--5-----------8--7--8--7--5-5-5-5-5----------------------|
D|-10-10-10-10--8--7--5---8-8-8---8--7--8--7--5-5-5-5-5----------------------|
A|-8--8--8--8---6--5--3---8-8-8---6--5--6--5--3-3-3-3-3----------------------|
E|------------------------6-6-6----------------------------------------------|
  
  Solo (1:13-1:30)
e|---------------------------------------------------------------------------|
A|-13--13------13--13-----13--13-------11--11-----11--11---------------------|
D|---12--12-12---12--12-12--12--12-12----10--10-10--10--10-10----------------|
G|---------------------------------------------------------------------------|
B|---------------------------------------------------------------------------|
E|---------------------------------------------------------------------------|

e|----------------------------------------13b-13br-11-13b-13b-13brb-11-------|
A|-13--13------13--13--------11-13-15b-13------------------------------------|
D|---12--12-12---12--12-10-12------------------------------------------------|
G|---------------------------------------------------------------------------|
B|---------------------------------------------------------------------------|
E|---------------------------------------------------------------------------|

<3


************************************

| /   slide up
| \   slide down
| h   hammer-on
| p   pull-off
| ~   vibrato
| +   harmonic
| x   Mute note
| b   Bend
| pb  Pre-bend
| br  Bend release
| pbr Pre-bend release
| brb Bend release bend

************************************
Добавлено: 25.06.2016
Другие материалы по этой песне:
  • Аккорды и текст

Страница создана 25.06.2016
http://primanota.ru/ta-stoukas/de-gamieste-chords.htm
Привет, Гость.
Предлагаем пройти революционный курс по гитаре.
Подарок от PrimaNota.Ru, забирай!