PrimaNota.ru - самый крупный в мире бесплатный архив песенных текстов, аккордов, табулатур и нот


T. Rex - A Beard Of Stars - таба, видео

Регистрация Запомнить меня
Войти через:  Facebook Google Twitter Vk Yandex Mail.ru

T. Rex - A Beard Of Stars - таба, видео

Печатать
Просмотров: 219
Magical guitar music by The Wizard - Marc Bolan

Tabbed by: Barry Rankin


E|----------------------------------------------------|
B|--13--12--13v---------------------------------------|
G|---------------14--12--14b16------12--14--14b16r14--|
D|------------------------------15--------------------|
A|----------------------------------------------------|
E|----------------------------------------------------|



E|--------------------------------------------------------------|
B|--13--12--13v-------------------------------------------------|
G|---------------14--12--14b16------12--14--14b16r15--15b16r14--|
D|------------------------------15------------------------------|
A|--------------------------------------------------------------|
E|--------------------------------------------------------------|



E|--------------------------------------------------------------|
B|--------------------------------------------------------------|
G|--12------12v------------------------------------12------14v--|
D|------14-------14--12\10--10--12--10--10--12/14------14-------|
A|--------------------------------------------------------------|
E|--------------------------------------------------------------|



E|-------------------------------------------------------------------------|
B|-------------------------------------------------------------------------|
G|--12----------------------12------------------------------------12--14v--|
D|------14--12--12--14--12------14--12\10--12--10--10--10--12/14-----------|
A|-------------------------------------------------------------------------|
E|-------------------------------------------------------------------------|



E|--------------------------------------------------------------|
B|--------------13v--12--13--12----------12--13--12--13--13b15--|
G|------12--14-------------------14--14-------------------------|
D|--14----------------------------------------------------------|
A|--------------------------------------------------------------|
E|--------------------------------------------------------------|



E|-------------------------------------------------------------|
B|--12--13--15b17--15b17r15--13------------------13b15--13b15--|
G|-------------------------------14------12--14----------------|
D|-----------------------------------14------------------------|
A|-------------------------------------------------------------|
E|-------------------------------------------------------------|



E|-----------------------------------------------------------------|
B|----------------------------------------------------------13-----|
G|--14------12--14--14b16--14b16--14b16r14--12------12--14---------|
D|------14--------------------------------------14-----------------|
A|-----------------------------------------------------------------|
E|-----------------------------------------------------------------|



E|-------------------------------------------------------------------------|
B|--15b17r15--15b17r15--15b17r15--15b17r15--15b17r15--13--------------13v--|
G|--------------------------------------------------------14--12--14-------|
D|-------------------------------------------------------------------------|
A|-------------------------------------------------------------------------|
E|-------------------------------------------------------------------------|



E|-------------------------------------------------------------------------|
B|----------13--15b17r15--15b17r15--------------------------13-------------|
G|--12--14--------------------------14--12----------12--14------14--12-----|
D|------------------------------------------14--14-------------------------|
A|-------------------------------------------------------------------------|
E|-------------------------------------------------------------------------|



E|-------------------------20--17------17--20--17------17h20--17--|
B|--------------13--15b17----------20--------------20-------------|
G|------12--14----------------------------------------------------|
D|--14------------------------------------------------------------|
A|----------------------------------------------------------------|
E|----------------------------------------------------------------|



E|------17--20--17---------------------------------20--17---------|
B|--20--------------20--17---------------------------------20-----|
G|--------------------------19--17--19--17--19b21-----------------|
D|----------------------------------------------------------------|
A|----------------------------------------------------------------|
E|----------------------------------------------------------------|



E|--17--20--17------17h20--17------17--20--17------17--20--17------|
B|--------------20-------------20--------------20--------------20--|
G|-----------------------------------------------------------------|
D|-----------------------------------------------------------------|
A|-----------------------------------------------------------------|
E|-----------------------------------------------------------------|



E|--17h20p17------17h20p17------17h20p17------17h20p17------|
B|------------20------------20------------20------------20--|
G|----------------------------------------------------------|
D|----------------------------------------------------------|
A|----------------------------------------------------------|
E|----------------------------------------------------------|



E|--17h20p17------17h20p17------17h20p17------17h20p17------|
B|------------20------------20------------20------------20--|
G|----------------------------------------------------------|
D|----------------------------------------------------------|
A|----------------------------------------------------------|
E|----------------------------------------------------------|



E|--17h20p17------17h20p17------17--20b21r20--17------20--17-----|
B|------------20------------20--------------------20-------------|
G|---------------------------------------------------------------|
D|---------------------------------------------------------------|
A|---------------------------------------------------------------|
E|---------------------------------------------------------------|



E|------17--20b22--20b22--20b22--20b22r20--17------17-----|
B|--20-----------------------------------------20---------|
G|--------------------------------------------------------|
D|--------------------------------------------------------|
A|--------------------------------------------------------|
E|--------------------------------------------------------|



E|--20b22--20b22--20b22r20b22r20b22r20--|
B|--------------------------------------|
G|--------------------------------------|
D|--------------------------------------|
A|--------------------------------------|
E|--------------------------------------|
Добавлено: 29.01.2014
Вам также может быть интересно:
Другие материалы по этой песне:
  • Аккорды и текст

Страница создана 29.01.2014
http://primanota.ru/t-rex/a-beard-of-stars-chords.htm
Привет, Гость.
Предлагаем пройти революционный курс по гитаре.
Подарок от PrimaNota.Ru, забирай!