PrimaNota.ru - самый крупный в мире бесплатный архив песенных текстов, аккордов, табулатур и нот


T Love - Warszawa - текст песни, таба, видео

Регистрация Запомнить меня
Войти через:  Facebook Google Twitter Vk Yandex Mail.ru

T Love - Warszawa - текст песни, таба, видео

Печатать
Просмотров: 75
tabbed by petlica (chords.pl)

Intro
   E                            A                         x2
e|-0--0---0-0-----------------|------0----------------0----|
B|-0--0---0-0-----------------|------5---5--5--5-5-5--0----|
G|-8--9---9-9-------9-9-------|------6---6--6--6-6-6--6----|
D|-9--9---9-9-------9-9--9--9-|------7---7--7--7-7-7--7----|
A|-7--7--------9h11-----11-11-|-0--0-0---0--0--0-0-0--0----|
E|-0--0--------0--------------|----------------------------|

 Verse
   H                           cis          A
e|------0------------0-------|------4--------------------0-0-|
B|------0------------0-------|----5-5--5-5--5--5--5-5-5--0-0-|
G|----8-8--8-8-----8-8--8-8--|-6--6-6--6-6--6--6--6-6-6--6-6-|
D|-9--9-9--9-9--9--9-9--9-9--|-6--6----6-6--7--7--7-7-7--7-7-|
A|-9--9----9-9--9--9----9-9--|-4--4----4-4--0--0--0-0-0--0-0-|
E|-7--7----7-7--7--7----7-7--|-------------------------------|

 Ref
   E       H      A    H  x3  E       H   A
e|-0--0-0--0-0-0--0-0--0-0--|-0--0-0--0-0-0----0---|
B|-0--0-0--0-0-0--0-0--0-0--|-0--0-0--0-0-0----0---|
G|-9--9-9--8-8-6--6-6--8-8--|-9--9-9--8-8-6----6---|
D|-9--9-9--9-9-7--7-7--9-9--|-9--9-9--9-9-7----7---|
A|-7--7-7--9-9-7--7-7--9-9--|-7--7-7--9-9-7----7---|
E|-0-------7-7-5--5-5--7-7--|-0-------7-7-5----5---|


  Ref_2
   E       H      A    H  x3  E       H   A
e|-0--0-0--0-0-0--0-0--0-0--|-0--0-0--0-0-0----0---|
B|-0--0-0--0-0-0--0-0--0-0--|-0--0-0--0-0-0----0---|
G|-9--9-9--8-8-6--6-6--8-8--|-9--9-9--8-8-6----6---|
D|-9--9-9--9-9-7--7-7--9-9--|-9--9-9--9-9-7----7---|
A|-7--7-7--9-9-7--7-7--9-9--|-7--7-7--9-9-7----7---|
E|-0-------7-7-5--5-5--7-7--|-0-------7-7-5----5---|

   A            H                   cis
e|-0-0-0-0------0--0-----0-0-0-0----4--4-------------------------|
B|-0-0-0-0------x--x-----0-0-0-0----5--5-------------------------|
G|-6-6-6-6------9--8-----6-6-6-6----6--6---------9------9-9------|
D|-7-7-7-7------x--x-----9-9-9-9----6--6---------9------9-9------|
A|-7-7-7-7------9--9-----9-9-9-9----4--4----9h11---9h11-----11p9-|
E|-5-5-5-5------7--7-----7-7-7-7---------------------------------|

Interlude
   E  H  E     H E H A H   E  H  E     E  H  E     H E H A H   A
e|----7--------7---7-5-7------7--0---|----7--------7---7-5-7---5--0--0---|
B|-9--7--9-----7-9-7-5-7---9--7--0---|-9--7--9-----7-9-7-5-7---5--5--0---|
G|-9--8--9-----8-9-8-6-8---9--8--1---|-9--8--9-----8-9-8-6-8---6--6--6---|
D|-9--9--9-----9-9-9-7-9---9--9--2---|-9--9--9-----9-9-9-7-9---7--7--7---|
A|-7--9--7-----9-7-9-7-9---7--9--2---|-7--9--7-----9-7-9-7-9---7--7--7---|
E|----7--------7---7-5-7------7--0---|----7--------7---7-5-7---5--5--5---|
                                                                 Th  Th
pozdr
petlica


Za oknem zimowo zaczyna sie dzie
Zaczynam kolejny dzie ycia
Wygldam przez okno, na oczach mam sen
A Grochw sie budzi z przepicia
Wypity alkohol uderza w tetnice
Autobus tapla sie w niegu
Przez szybe ogldam betonu stolice
Ju jestem na drugim jej brzegu
Gdy patrze w twe oczy zmeczone jak moje
To kocham to miasto zmeczone jak ja
Gdzie Hitler I Stalin zrobili, co swoje
Gdzie wiosna spalin oddycha
Krakowskie Przedmiecie zalane jest socem
Wirujesz jak obok, wynurzasz sie z bramy
A ja jestem godny, tak bardzo godny
Kochanie, nakarmisz mnie snami
Zielony oliborz, pieprzony oliborz
Rozkwita na drzewach na krzewach
Ciekami z rzeki kompletnie pijany
Chce krzycze, chce rycze, chce piewa
Pogdy patrze w twe oczy zmeczone jak moje
To kocham to miasto zmeczone jak ja
Gdzie Hitler I Stalin zrobili, co swoje
Gdzie wiosna spalin oddycha
Jesieni zawsze zaczyna sie szkoa
A w knajpach zaczyna sie picie
Jest toczno I duszno, olewa nas kelner
I tak skoczymy o wicie
Jesieni zawsze myle o latach
Tak starych jak te kamienice
Jesieni wychodze z tob na spacer
Przez pene kasztanw ulice
I patrze w twe oczy zmeczone jak moje
To kocham to miasto zmeczone jak ja
Gdzie Hitler I Stalin zrobili, co swoje
Gdzie wiosna spalin oddycha
Добавлено: 04.05.2016
Другие материалы по этой песне:

Страница создана 03.11.2014
http://primanota.ru/t-love/warszawa-chords.htm
Привет, Гость.
Предлагаем пройти революционный курс по гитаре.
Подарок от PrimaNota.Ru, забирай!