PrimaNota.ru - самый крупный в мире бесплатный архив песенных текстов, аккордов, табулатур и нот


T G Sheppard - The Last Cheaters Waltz - таба, видео

Регистрация Запомнить меня
Войти через:  Facebook Google Twitter Vk Yandex Mail.ru

T G Sheppard - The Last Cheaters Waltz - таба, видео

Печатать
Просмотров: 11
-------------------------------------------------------------------------------
                             The last Cheaters Waltz - T G Sheppard
-------------------------------------------------------------------------------
This is the video https://www.youtube.com/watch?v=QagGVQzmZsU
to play with on line. Lyrics, chords and note tabs.
The instrumental chords may not be correct. Someone can correct them, thanks.

Tabbed by: Rob    E-mail:FL_Bob2002@yahoo.com
Tuning:standard

  G       2.    C                C                                C7
e|-------  -------0---------------0-----------------------------------------|
B|-------  -------1---------------1-------------------------------1---------|
G|-------  -------0---------------0-----------------------0-------3---------|
D|-0-----  -0-----2---------0-----2---------------2---3-----------2---------|
A|-------  -------3---------------3-------------------------------3----3----|
E|-----3-  ------------3---------------3----3-------------------------------|
1.She was   go -  ing  to  piec - es  when she walked in  the    door she
          2.tells her  he  loves  her and  the   mu - sic playes on.   He

         F           F                     F        G
e|-----------------------------------------1---------------------------------|
B|-------1-----------1-----------------2---1--------0---0-----0--------------|
G|-0-----2------0----2--------2----3-------2--------0---0-----0--------------|
D|-------3-----------3---------------------3---0----0---0-----0--------------|
A|----------3-------------3--------------------------------------------------|
E|---------------------------------------------------------------------------|
  just  had to see   him she cant wait no more to night he'll be
  tells her he needs her but some ones at home The ball games all

   G                                          
e|---------------------------------------------------------------------------|
B|-0---1--3--------------1----0---0-------0----------------------------------|
G|-0---0--0--------------0----0-------2---0----0-----------------------------|
D|-0---0--0----0-----2---0----0-----------0----------2-----------------------|
A|---------------------------------------------------------------------------|
E|---------------------------------------------------------------------------|
 with her no  mat - ter the  cost as the band plays the
  o - ver and she knows shes lost as the band plays the 

  G7              C                                          C
e|----------------0------------------------------------------0---------------|
B|----------------1------------------------------------------1---------------|
G|----------------0------------------------------------------0---------------|
D|-3-----2---0----2-----------0------------------------------2---------0-----|
A|----------------3-----2-3----------------------------------3---2-3---------|
E|---------------------------------------------------------------------------|
  Last cheaters waltz.     2. He (Go to top of the song)
  Last cheaters                                             waltz.    And


 
(chorus)

   C // G // AM7//      G                     F // Dm //  Fmaj7 /
e|-0----3-----0-------------------------------1-----1------0------1-0--------|
B|-1----0-----1---------0----2----0-----------1-----3------1-----------------|
G|-0----0-----0-------------------------2-----2-----2------2-----------------|
D|-2----0-----2-------------------------------3------------3-----------------|
A|-3----2--------------------------------------------------------------------|
E|------3--------------------------------------------------------------------|
  ooh   ooh   ooh      dont they sound lone - ly   


  Dm         G // Dm7 //  G // Dm7             C //   G
e|-----------3-----1------3-----1--------------0-----------------------------|
B|-3-2-------0-----1------0-----1----0----0----1-----------------------------|
G|-----2-0---0-----2------0-----2--------------0-----------------------------|
D|-----------0------------0--------------------2-----------------------------|
A|-----------2------------2--------------------3------2-3--------------------|
E|-----------3------------3--------------------------------------------------|
        and  ooh  ooh    ooh  dont they play sad   



       C // G // Am7 //                 F // Dm // Fmaj7 / / + Dm7 / /
e|-----0-----3----0---------------------1-----1-----0------1-0--------------|
B|-----1-----0----1-----0-----1--0------1-----3-----1-----------3-1---------|
G|-----0-----0----0-------------------2-2-----2-----2---------------2-------|
D|-0---2-----0----2---------------------3-----------3-----------------------|
A|-----3-----2--------------------------------------------------------------|
E|-----------3--------------------------------------------------------------|
  and ooh              three quarters only


    G           Dm7                G                          C
e|--3----3---3---1-----------------3-------0----1----0--------0--------------|
B|--0----0---0---1-----0--0--------0----3-------0-------3-----1--------------|
G|--0----0---0---2-----0------2----0------------0-------------0--------------|
D|--0----0---0---0-----0-----------0--------------------------2--------------|
A|--2----2---2---------------------2--------------------------3-------0-2----|
E|--3----3---3---------------------3---------------------------------3--------|
   watch how he holds her as they dance to the last cheaters waltz       Inst

Instrumental  C G C  and then repeat chorus and end.
Добавлено: 19.06.2016
Вам также может быть интересно:
Другие материалы по этой песне:
  • Аккорды и текст

Страница создана 19.06.2016
http://primanota.ru/t-g-sheppard/last-cheaters-waltz-chords.htm
Привет, Гость.
Предлагаем пройти революционный курс по гитаре.
Подарок от PrimaNota.Ru, забирай!