PrimaNota.ru - самый крупный в мире бесплатный архив песенных текстов, аккордов, табулатур и нот


T-connection - Do What You Wanna Do - бас-таба, видео

Регистрация Запомнить меня
Войти через:  Facebook Google Twitter Vk Yandex Mail.ru

T-connection - Do What You Wanna Do - бас-таба, видео

Печатать
Просмотров: 89
Авторы музыки: Theophilus Coakley
Авторы текста: Theophilus Coakley
-------------------------------------------------------------------------------
                             Do What You Wanna Do - T-Connection
-------------------------------------------------------------------------------
Tabbed by: 
E-mail: 

Tuning: Standard EADG

Intro
G|-5-5-----3-3-----1-1---1-0-0-3-4-5-5-----3-3-----1-1---1-0-0-8-7-----------|
D|-----3-3-----1-1-----1---------------3-3-----1-1-----1---------------------| X3
A|---------------------------------------------------------------------------|
E|---------------------------------------------------------------------------|
Main Riff
G|-------3-5--3-5-3--8-8-7-5-3-----------------------------------------------|
D|---------------------------------------------------------------------------| X3
A|-1-2-3---------------------------------------------------------------------|
E|---------------------------------------------------------------------------|
Before Chorus
G|-------3-5--3-5-3----------------------------------------------------------|
D|---------------------------------------------------------------------------|
A|-1-2-3-------------3-3-3-3-3-3-3--3-5--------------------------------------|
E|---------------------------------------------------------------------------|
Chorus
G|-8--8p6-----------------------13-13p11-------------------------------------|
D|---------------------------------------------------------------------------| X2
A|-----------------------------------------6-6-6-6-6-6-6-6-4-----------------|
E|----------2-2-2-2-2-2-2-2-4------------------------------------------------|

G|---------------------------------------------------------------------------|
D|---------------------------------------------------------------------------| Fill 
A|-3-3-1-2-3-3-1-2-3-3-1-2-3-3-1-2-3-3-1-2-3-3-------------------------------|
E|---------------------------------------------------------------------------|

G|-5--3--1--0--5--3--1--0----------------------------------------------------| 
D|---------------------------------------------------------------------------| X7
A|---------------------------------------------------------------------------|
E|---------------------------------------------------------------------------|




| /  slide up
| \  slide down
| h  hammer-on
| p  pull-off
| ~  vibrato
| +  harmonic
| x  Mute note
===============================================================================
Добавлено: 29.07.2015
Другие материалы по этой песне:
  • Аккорды и текст

Страница создана 29.07.2015
http://primanota.ru/t-connection/do-what-you-wanna-do-chords.htm
Привет, Гость.
Предлагаем пройти революционный курс по гитаре.
Подарок от PrimaNota.Ru, забирай!