PrimaNota.ru - самый крупный в мире бесплатный архив песенных текстов, аккордов, табулатур и нот


T Bone Walker - Papa Aint Salty - таба, видео

Регистрация Запомнить меня
Войти через:  Facebook Google Twitter Vk Yandex Mail.ru

T Bone Walker - Papa Aint Salty - таба, видео

Печатать
Просмотров: 51
Уроки эстрадного вокала в Санкт-Петербурге
-----------------------------------------------------------------
                Papa Ain't Salty - T-Bone Walker
-----------------------------------------------------------------

Tabbed By : Aeonoptic
e-mail: aeonoptic@gmail.com

Tuning: EADGBe

  G7                                                          C7                         G7
E|------3--|------3-------------------|-----|----------------|---------------|-----3----|5-3----------------|
B|----3---6|----3---6-3---------3-----|-----|----------------|--------------3|---3---6-3|----3-6-5-3--------|
G|5b7------|5b7---------5b7-5-3-----3b|5b6-5|5b6-5---3-5br7-3|5---3-5---3-5--|5b--------|------------5-3----|
D|---------|----------------------5---|-----|------5---------|--5-----5------|----------|----------------5--|
A|---------|--------------------------|-----|----------------|---------------|----------|------------------5|
E|---------|--------------------------|-----|----------------|---------------|----------|-------------------|

                       D7                C7                  G7
E|--------------------|----3-------3----|------------------3|---------------|------3-----3|
B|------------------3b|--3-------3---6-3|----------------3--|3-6-3----------|----3---3-6--|
G|----3-5-6-3-5-------|5-----5b6--------|5b6-3-5-3---3-4----|------5-3---3--|3-4----------|
D|3-5-----------5-----|-----------------|----------5--------|----------5---5|-------------|
A|----------------5---|-----------------|-------------------|---------------|-------------|
E|--------------------|-----------------|-------------------|---------------|-------------|

  Under verses 1 & 2
  G7                                                  C7                        G7
E|------------|------------|------------|------------|------------|------------|------------|------------|
B|------------|------------|------------|------------|------------|------------|------------|------------|
G|------------|------------|------------|------------|-----5--3---|-----5--3---|------------|------------|
D|-----5--3---|-----5--3---|-----5--3---|-----5--3---|-----------5|-----------5|-----5--3---|-----5--3---|
A|-----------5|-----------5|-----------5|-----------5|3-3---------|3-3---------|-----------5|-----------5|
E|3-3---------|3-3---------|3-3---------|3-3---------|------------|------------|3-3---------|3-3---------|

  D7           C7           G7
E|------------|------------|------------|------------|
B|------------|------------|------------|------------|
G|-----7--5---|-----5--3---|------------|------------|
D|-----------7|-----------5|-----5--3---|-----5--3---|
A|5-5---------|3-3---------|-----------5|-----------5|
E|------------|------------|3-3---------|3-3---------|

  Solo
  G7
E|------3----|------3-----5-3----------------|---------------------------|-------------|
B|----3------|----3---6-3-----3-6-3----------|------------3--------------|------3------|
G|5b7-----5b7|5b7-------------------5-3------|3-5b7-3-5b7---5b7--3-5-3---|3-5b7--------|
D|-----------|--------------------------5---5|-------------------------5~|-------------|
A|-----------|----------------------------5--|---------------------------|-------------|
E|-----------|-------------------------------|---------------------------|-------------|

  C7                                       G7
E|--------------|--------------------3----|6b8-3---6b8-3------------|-----------3-----5-3--|
B|--------------|------------------3---6-3|------3-------3-6-5-3----|---------3---6-3-----3|
G|3-5b6-3-5---3b|3-5b6-3-5---3-5b6--------|----------------------3-5|-------5--------------|
D|----------5---|----------5--------------|-------------------------|----------------------|
A|--------------|-------------------------|-------------------------|----------------------|
E|--------------|-------------------------|-------------------------|----------------------|

  D7                C7                            G7
E|------------3-5--|--3-5-3----------------------|------3--------------|-----------------------|
B|6-6-5-3--6b-----3|6-------3-6-3---------3------|----3---6-3----------|---------------3/5-5-3~|
G|-----------------|--------------5b6-3-5-----3--|3-4---------5-3---3--|-----------------------|
D|-----------------|------------------------5---5|----------------5---5|-----------------------|
A|-----------------|-----------------------------|---------------------|-----------------------|
E|-----------------|-----------------------------|---------------------|-----------------------|

  G7
E|----------1/3-3-1~|
B|----------3/5-5-3~|
G|7/9--7------------|
D|------------------|  x4
A|5/7--5------------|
E|------------------|

  C7
E|6/8--8--6~------------|
B|8/10-10-8~---8/10-10-8|
G|----------------------|
D|-------------5/7--7--5| x2
A|----------------------|
E|----------------------|

  G7
E|1/3-3-1~---------|
B|3/5-5-3~---------|
G|-----------7/9--7|
D|-----------------|  x2
A|-----------5/7--5|
E|-----------------|

  D7                      C7                     G7
E|8-/10-10-8-~-----------|6/8--8--6~------------|1/3-3-1~---------|1/3-3-1~---------|
B|10/12-12-10~---10/12-10|8/10-10-8~---8/10-10-8|3/5-5-3~---------|3/5-5-3~---------|
G|-----------------------|----------------------|-----------7/9--7|-----------7/9--7|
D|---------------7-/9--7-|-------------5/7--7--5|-----------------|-----------------|
A|-----------------------|----------------------|-----------5/7--5|-----------5/7--5|
E|-----------------------|----------------------|-----------------|-----------------|

Verse 3
  G7                                                              C7
E|---------------|---------------|---------------|---------------|---------------|---------------|
B|---------------|---------------|---------------|---------------|---------------|---------------|
G|---------------|---------------|---------------|---------------|------------2-2|------------2-2|
D|------------2-2|------------2-2|------------2-2|------------2-2|----2-2-5-5----|----2-2-5-5----|
A|----2-2-5-5----|----2-2-5-5----|----2-2-5-5----|----2-2-5-5----|3-3------------|3-3------------|
E|3-3------------|3-3------------|3-3------------|3-3------------|---------------|---------------|

  G7                              D7              C7              G7                  F9  E9
E|---------------|---------------|---------------|---------------|6-3----------------|------|
B|---------------|---------------|---------------|---------------|----3---3----------|8---7-|
G|---------------|---------------|------------4-4|---------------|------5---5-3---3--|8---7-|
D|------------2-2|------------2-2|----4-4-7-7----|---------------|--------------5---5|7---6-|
A|----2-2-5-5----|----2-2-5-5----|5-5------------|---------------|-------------------|8---7-|
E|3-3------------|3-3------------|---------------|---------------|-------------------|------|


| /  slide up
| \  slide down
| h  hammer-on
| p  pull-off
| ~  vibrato
| +  harmonic
| x  Mute note
Добавлено: 03.05.2016
Другие материалы по этой песне:
  • Аккорды и текст

Страница создана 03.05.2016
http://primanota.ru/t-bone-walker/papa-aint-salty-chords.htm
Привет, Гость.
Предлагаем пройти революционный курс по гитаре.
Подарок от PrimaNota.Ru, забирай!