PrimaNota.ru - самый крупный в мире бесплатный архив песенных текстов, аккордов, табулатур и нот


T Bone Walker - Guitar Boogie - таба, видео

Регистрация Запомнить меня
Войти через:  Facebook Google Twitter Vk Yandex Mail.ru

T Bone Walker - Guitar Boogie - таба, видео

Печатать
Просмотров: 136
Уроки эстрадного вокала в Санкт-Петербурге
T Bone Walker - Guitar Boogie
Tablatura por Aldo Alain


|-----------------------------------8--11-8----11b--8-------------------------|
|-----------------------------8--10-------------------11-8--------------------|
|-------------------------8h9------------------------------10b--8h10-8--------|
|-10-10--10-10--10-10--10----------------------------------------------10-----|
|-----------------------------------------------------------------------------|
|-----------------------------------------------------------------------------|

|------8-------------------------------------------------------------8------10|
|----8-------------------------------------------------------------8---11-8---|
|-10b----10b----8-10~--10-8-10-8----------10-8-10-8--------8---10b------------|
|------------10------------------10--10-------------10--10--------------------|
|-----------------------------------------------------------------------------|
|-----------------------------------------------------------------------------|

                                                                     x20
|---------------8-----(8)------------------------8-11b--8---------|----------|
|-x-8-11--8---------------------------------8-10----------8---/11-|--11------|
|-----------10b---10b-----10b-8h10-8----8h9-------------------/12-|--12------|
|------------------------------------10---------------------------|----------|
|-----------------------------------------------------------------|----------|
|-----------------------------------------------------------------|----------|

|----------------------------------------------/8--8-8-8-8-8-----------------|
|-/11--11-11-11--/11--11-11-11--/11--11-11-11--/8--8-8-8-8-8---------------8-|
|-/12--12-12-12--/12--12-12-12--/12--12-12-12--/7--7-7-7-7-7-------8-10(b)---|
|----------------------------------------------/8--8-8-8-8-8----10-----------|
|----------------------------------------------------------------------------|
|----------------------------------------------------------------------------|

|----------------------------------------------------------------------------|
|-----8-----8-----8-----8---------8-----8-----8-----8-----8------------------|
|-10b---10b---10b---10b-------10b---10b---10b---10b---10b---10b--10(b)-------|
|----------------------------------------------------------------------------|
|----------------------------------------------------------------------------|
|----------------------------------------------------------------------------|

|----------------------------8-11b--8-----11-11b--8-11b---8-11b---8--10-8----|
|-----------------------8-10----------8---10-10---8-10----8-10---------------|
|-8-10(b)-8-10-8----8-9-------------------11-11b----11b-----11b--------------|
|----------------10----------------------------------------------------------|
|----------------------------------------------------------------------------|
|----------------------------------------------------------------------------|

|------------------8-------------8-8----8------------------------------------|
|-8-11--8-11--8-11---8-11-8-x-11-----8----11--8----8-------------------------|
|-----------------------------------------------10-8------8-10b-8-10-8-------|
|------------------------------------------------------10--------------10----|
|----------------------------------------------------------------------------|
|----------------------------------------------------------------------------|

|---------------8------10-8---------------8----------------------------------|
|-------------8---11-8------8-10b---8---------------------------------8-10---|
|----8b---10b-------------------------10b---10b--8-10b--8-10-8----8-9--------|
|-10-----------------------------------------------------------10------------|
|----------------------------------------------------------------------------|
|----------------------------------------------------------------------------|

|-8-11b--8------8-8---8\----8-8---8\--9--8-----------------------------------|
|----------8----8-8---8\----8-8---8\--9--8-----------------------------------|
|---------------7-7---7\----7-7---7\--9--8-----8--------8-8-----8-10b-10r-8--|
|---------------8-8---8\----8-8---8\--8--7--10----10-10-----10---------------|
|----------------------------------------------------------------------------|
|----------------------------------------------------------------------------|

|---------------------------8-11b-8-10--8-10--8------------------------------|
|-------------------8h10-10---------------------11-x-11-8-10-x-10------------|
|-10-8---------8--------------------------------------------------x-10-x-10-8|
|------10-x-10---------------------------------------------------------------|
|----------------------------------------------------------------------------|
|----------------------------------------------------------------------------|

|-----------------8-------------------8-11b--8--11b--8--11b--8---------------|
|---------------8---8------------8-10--------------------------10-8-10-------|
|----------8--9-------10-8---------------------------------------------------|
|-10-x-10------------------10------------------------------------------------|
|--------------------------10------------------------------------------------|
|----------------------------------------------------------------------------|

|------8-11--11-11--8-11--11-11--8-11--11-11-8-------------------------------|
|-8-10-----------------------------------------10b--8---------10br-8---------|
|-----------------------------------------------------10-8b----------10-8----|
|-------------------------------------------------------------------------10-|
|----------------------------------------------------------------------------|
|----------------------------------------------------------------------------|

|-------------------------------------------------8-----8-----8--------------|
|-------------------------------------------8--------------------------------|
|------8----------8---------8---------8--10b--10b---10b---10b---10b-8-10-8---|
|-x-10---10--x-10---10-x-10---10-x-10--------------------------------------10|
|----------------------------------------------------------------------------|
|----------------------------------------------------------------------------|

|----------8-11b--8-----11b-11b---8--11b---11b-11b---8--11b---11b-8-11b-8----|
|-----8-10----------8---10--10----8--10----10--10----8--10----10--8-10----8--|
|-8-9-------------------11b-11b------11b---11b-11b---8--11b---11b---11b------|
|----------------------------------------------------------------------------|
|----------------------------------------------------------------------------|
|----------------------------------------------------------------------------|

|--------------------------------------8------------------8------10-8--------|
|-------------------------------------8--11-8-----------8---11-8------8-10b--|
|-10b-8-10-8----8-10b-8-10-8---------0--------11-10-8-9----------------------|
|------------10--------------10----------------------------------------------|
|-------------------------------10-------------------------------------------|
|----------------------------------------------------------------------------|

|---------------------------8-11b-(x)------8~------------8~---------8~-------|
|-8--------------------8-10----------(x)-x-8~---10-------8~-10------8~---10--|
|---10b--8-10-8----8-9-----------------------------8b----------8-------------|
|---------------10------------------------------------10---------10----------|
|----------------------------------------------------------------------------|
|----------------------------------------------------------------------------|

|--------11-8----------------------------------------------------------------|
|--------------8-11-8--------------------------------------------------------|
|-8--------------------10-8-10-X--10-8-10-8----------8-10--8-10-8---------8b-|
|---10--------------------------------------10-X-10---------------10-X-10----|
|----------------------------------------------------------------------------|
|----------------------------------------------------------------------------|

|-------8------10-8---------------8-----8------------------------8-11b--8----|
|-----8---11-8------8-11----8-------------------------------8-10-------------|
|-10b-------------------------10b---10b---10b-8-10-8----8-9------------------|
|----------------------------------------------------10----------------------|
|----------------------------------------------------------------------------|
|----------------------------------------------------------------------------|

|-8-8---8\----8-8---8\---9--8------------------------------------------------|
|-8-8---8\----8-8---8\---9--8------------------------------------------------|
|-7-7---7\----7-7---7\---9--8-----8-x-8-----8--8-8----8--8-8----8--8-8-------|
|-8-8---8\----8-8---8\---8--7--10-------10---------10--------10--------10----|
|----------------------------------------------------------------------------|
|----------------------------------------------------------------------------|

|---------------------------------------------8--------------8---------------|
|-----------------------8----------------------------------------------------|
|-8--8-8----8-10b--8-10-----10b--10b------10b---10b------10b---10b-----------|
|--------10--------------------------10-------------10-------------10--------|
|----------------------------------------------------------------------------|
|----------------------------------------------------------------------------|

|------8-------11b--8-11b---11b-11b-8-11b---11b-11b-8-11b---11b-11b-8-11b----|
|--------------10---8-10----10--10--8-10----10--10--8-10----10--10--8-10-----|
|-10b----10b---11b----11b---11b-11b---11b---11b-11b---11b---11b-11b---11b----|
|----------------------------------------------------------------------------|
|----------------------------------------------------------------------------|
|----------------------------------------------------------------------------|

|-11b-11b-8-11b---11b-11b--8-11b--8-11b--8-11b---8-8-8-8-8--8--x-8-x-8-------|
|-10--10--8-10----10--10---8-10---8-10---8-10----8-8-8-8-8--8--x-8-x-8-------|
|-11b-11b---11b---11b-11b----11b----11b----11b---7-7-7-7-7--7--x-7-x-7-------|
|------------------------------------------------8-8-8-8-8--8--x-8-x-8-------|
|----------------------------------------------------------------------------|
|----------------------------------------------------------------------------|

|-8-8-8-8-8--8--x-8-x-8----8-8-8-8-8--8--x-8-x-8---8-8-8-8-8--8--x-8-x-8-----|
|-8-8-8-8-8--8--x-8-x-8----8-8-8-8-8--8--x-8-x-8---8-8-8-8-8--8--x-8-x-8-----|
|-7-7-7-7-7--7--x-7-x-7----8-8-8-8-8--8--x-8-x-8---7-7-7-7-7--7--x-7-x-7-----|
|-8-8-8-8-8--8--x-8-x-8----7-7-7-7-7--7--x-7-x-7---8-8-8-8-8--8--x-8-x-8-----|
|----------------------------------------------------------------------------|
|----------------------------------------------------------------------------|

|-----------------------------------------------8------10-8------------------|
|---------------------------------------------8---11-8------8-10br-8---------|
|-8-10b-8-10-------10b-8-10-8--------8----10b------------------------10b-----|
|------------10---------------10--10-----------------------------------------|
|----------------------------------------------------------------------------|
|----------------------------------------------------------------------------|

|-----------------------------------8------10-8------------------------------|
|---------------------------------8---11-8------8-10b--8------8-----8------8-|
|-10br-8-10b--8-10-8----------10b------------------------10b----10b---10b----|
|--------------------10------------------------------------------------------|
|-----------------------10---------------------------------------------------|
|----------------------------------------------------------------------------|

|-11-8----------------9-8----------------------------------------------------|
|------8-11-8----8----9-8----------------------------------------------------|
|-------------10------8-7----------------------------------------------------|
|------------------10-9-8----------------------------------------------------|
|----------------------------------------------------------------------------|
|---------------------9-8----------------------------------------------------|
Добавлено: 03.05.2016
Другие материалы по этой песне:
  • Аккорды и текст

Страница создана 03.05.2016
http://primanota.ru/t-bone-walker/guitar-boogie-chords.htm
Привет, Гость.
Предлагаем пройти революционный курс по гитаре.
Подарок от PrimaNota.Ru, забирай!