PrimaNota.ru - самый крупный в мире бесплатный архив песенных текстов, аккордов, табулатур и нот


T-ara - Roly Poly - бас-таба, видео

Регистрация Запомнить меня
Войти через:  Facebook Google Twitter Vk Yandex Mail.ru

T-ara - Roly Poly - бас-таба, видео

Печатать
Просмотров: 404
Roly Poly by T-ara :)
Credits to CrickBassify.
http://www.youtube.com/user/CrickBassify?feature=watch

Video - http://www.youtube.com/watch?v=8bh-GEasB7E&feature=related

G|--------------|
D|-----7-5------|
A|---------7----| 
E|--5--------4--| x4

G|----------------|
D|-----7-5---5-7--|
A|---------7------| 
E|--5-------------| x3

G|----------------|
D|-----7-5\-------|
A|----------------| 
E|--5-------------|

G|----------------------|
D|----------------------|
A|----------------------| 
E|-5-5-5-5--3--0---0----| x3

G|----------------------|
D|----------------------|
A|----------------------| 
E|-5-5-5-5--3-0-3-5-----|

G|----------------------|
D|----------------------|
A|----------------------| 
E|-5-5-5-5--3--0---0----| x3

G|----------------------|
D|----------------------|
A|----------------------| 
E|-5-5-5-5--3-0-3-5-----|

G|----------------------------------------|
D|----------------------------------------|
A|----------------------------------------| 
E|-55555555-11111111-88888888-33333333----| x3

G|----------------------------------|
D|----------------------------------|
A|----------------------------------| 
E|-55555555-11111111-88888888-3~----|

G|----------------------------------------------|
D|----------------------------------------------|
A|----------88888888----------1010101010101010--|
E|-55555555----------88888888-------------------| x2

The "|--1010101010101010--|" is not 1 then 0 it's 10.

G|----------------------|
D|----------------------|
A|----------------------| 
E|-5-5-5-5--3--0---0----| x3

G|----------------------|
D|----------------------|
A|----------------------| 
E|-5-5-5-5--3-0-3-5-----|

G|----------------------|
D|----------------------|
A|----------------------| 
E|-5-5-5-5--3--0---0----| x3

G|----------------------|
D|----------------------|
A|----------------------| 
E|-5-5-5-5--3-0-3-5-----|

G|-----------------------------------------------------|
D|-----------------------------------------------------|
A|-----------------------------------------------------| 
E|-5-5-5-5-/10\-55555555-11111111-88888888-33333333----|

G|----------------------------------------|
D|----------------------------------------|
A|----------------------------------------| 
E|-55555555-11111111-88888888-33333333----| x2

G|-----------------------------------------|
D|-----------------------------------------|
A|-----------------------------------------| 
E|-55555555-11111111-88888888-3-/15\-3-----|

G|----------------------------------------------|
D|----------------------------------------------|
A|----------88888888----------1010101010101010--|
E|-55555555----------88888888-------------------| x2

G|----------------------|
D|----------------------|
A|----------------------| 
E|-5-5-5-5--3--0---0----| x3

G|----------------------|
D|----------------------|
A|----------------------| 
E|-5-5-5-5--3-0-3-5-----|

G|----------------------|
D|----------------------|
A|----------------------| 
E|-5-5-5-5--3--0---0----| x3

G|----------------------|
D|----------------------|
A|----------------------| 
E|-5-5-5-5--3-0-3-5-----|

Oh Oh Oh Oh

I like like this
I like like that
I like this, like that
Yeah~

G|----------------------------------------------|
D|----------------------------------------------|
A|----------88888888----------1010101010101010--|
E|-55555555----------88888888-------------------| x4

G|----------------------|
D|----------------------|
A|----------------------| 
E|-5-5-5-5--3--0---0----| x3

G|----------------------|
D|----------------------|
A|----------------------| 
E|-5-5-5-5--3-0-3-5-----|

G|----------------------|
D|----------------------|
A|----------------------| 
E|-5-5-5-5--3--0---0----| x3

G|----------------------|
D|----------------------|
A|----------------------| 
E|-5-5-5-5--3-0-3-5-----|

G|----------------------|
D|----------------------|
A|----------------------| 
E|-5-5-5-5-5-/10\--5----|

Hope this is helpful ._.
Добавлено: 02.07.2013
Другие материалы по этой песне:
  • Аккорды и текст

Страница создана 02.07.2013
http://primanota.ru/t-ara/roly-poly-chords.htm
Привет, Гость.
Предлагаем пройти революционный курс по гитаре.
Подарок от PrimaNota.Ru, забирай!