PrimaNota.ru - самый крупный в мире бесплатный архив песенных текстов, аккордов, табулатур и нот


T-ara - Dont Leave - таба, видео

Регистрация Запомнить меня
Войти через:  Facebook Google Twitter Vk Yandex Mail.ru

T-ara - Dont Leave - таба, видео

Печатать
Просмотров: 257
Title: Dont Leave
Artist: T-ara
Arranged: JooLee
Capo 5

e|-----0-1-----1-------0-1-0-------------------------------------------|
b|---3---3---3-------3-----1---1-3-1-----1-3-----------------1---------|
g|-2-----2-2-----2-2-------2-2-----2---2---3---3---3-----0-2---2-----2-|
d|-------0-----------------2-------2-2-----3-3-3-3-3-3-3---2-------2---|
a|---------------------------------0-------1---1---1-------0-----0-----|
e|---------------------------------------------------------------------|

e|-----0-1----1---1---3-1-0-0-0-5-0-----0-----0-1-3-1-0------|
b|---3---3---3----3-------1-------1---1---3-------------3----|
g|-2-----2-2------2-------2-------2-2-----3-------0-----2----|
d|-------0--------0-0-----2-------2-------3-3-----2-----3----|
a|----------------------------------------1-------------1----|
e|-----------------------------------------------------------|
Добавлено: 14.08.2013
Другие материалы по этой песне:
  • Аккорды и текст

Страница создана 14.08.2013
http://primanota.ru/t-ara/dont-leave-chords.htm
Привет, Гость.
Предлагаем пройти революционный курс по гитаре.
Подарок от PrimaNota.Ru, забирай!