PrimaNota.ru - самый крупный в мире бесплатный архив песенных текстов, аккордов, табулатур и нот


Systems Officer - Forever This Cyanide - таба, видео

Регистрация Запомнить меня
Войти через:  Facebook Google Twitter Vk Yandex Mail.ru

Systems Officer - Forever This Cyanide - таба, видео

Печатать
Просмотров: 110
Уроки эстрадного вокала в Санкт-Петербурге
Song: Forever This Cyanide
Artist: Systems Officer (http://www.systemsofficer.com)
Album: Systems Officer

tabbed by: Paul
email: shytzoo@gmail.com


****I'm not entirely sure about the outro and only came up with that tab because it 
close to, if not what it is.
    The Intro/Verse on the otherhand, I am fairly sure that is perfectly right. As for 
chorus you can choose to play
    it by just letting each chord ring and sliding (this is actually what the guitar 
in the song) but since i play
    this on acoustic i just strum the chords to give it a more complete sound.

capo: 1st fret
tuning: Standard


Intro/Verse:

     C                           Am                         F                            
e|---------------------------|---------------------------|---------------------------|
B|---------1-----0-----------|---------------------------|---------------------------|
G|------------------0-----0--|---------2-----1-----------|---------2-----2--------0--|
D|------2-----2--------2-----|------2-----2-----2-----2--|------------------3--------|
A|---3-----------------------|---0-----------------0-----|------3-----3--------3-----|
E|---------------------------|---------------------------|---1-----------------------|

  C
---------------------------|
---------------------------|
---------------------------|
---2-----2-----2-----2-----|
------3-----3-----3-----3--|
---------------------------|


Chorus:

     C       D       C               G
e|--------------------------------------------------------------------|
B|--------------------------------------------------------------------|
G|---5-5-5-5-7-7-7-7-5-5-5-5-5-5-5-5----------------------------------|
D|---5-5-5-5-7-7-7-7-5-5-5-5-5-5-5-5----------------------------------|
A|---3-3-3-3-5-5-5-5-3-3-3-3-3-3-3-3-5-5-5-5-5-5-5-5-5-5-5-5-5-5-5-5--|
E|-----------------------------------3-3-3-3-3-3-3-3-3-3-3-3-3-3-3-3--|


Interlude:


e|--------------------------------|------------------------|
B|--------------------------------|------------------------|
G|--5/7--7/9--9/10--10/12--12/14--|--14\9-9-9-9-9\7/5/7\5--|
D|--------------------------------|------------------------|
A|--3/5--5/7--7/8---8-/10--10/12--|--12\7-7-7-7-7\5/3/5\3--|
E|--------------------------------|------------------------|


Outro:

e|--------------------------|--------------------------|--------------------------|
B|--------------------------|--------------------------|--------------------------|
G|--2--2--0--2--------------|--2--2--0--2--------------|--2--2--0--2--------------|
D|--------------2-----------|--------------2-----------|--------------2-----------|
A|-----------------3--2--0--|-----------------3--2--0--|-----------------3--2--0--|
E|--------------------------|--------------------------|--------------------------|

--------------------------|
--------1-----0-----------|
--2--2--------------2--0--|
--------------------------|
--------------------------|
--------------------------|

Order of Play:

Intro/Verse x5
Chorus      x4
Intro/Verse x4
Chorus      x4
Interlude   x4
Outro       till fade out
Добавлено: 09.05.2012
Другие материалы по этой песне:

Страница создана 09.05.2012
http://primanota.ru/systems-officer/forever-this-cyanide-chords.htm
Привет, Гость.
Предлагаем пройти революционный курс по гитаре.
Подарок от PrimaNota.Ru, забирай!