PrimaNota.ru - самый крупный в мире бесплатный архив песенных текстов, аккордов, табулатур и нот


Systematic - They Say My Soul Was Lost - текст песни, таба, видео

Регистрация Запомнить меня
Войти через:  Facebook Google Twitter Vk Yandex Mail.ru

Systematic - They Say My Soul Was Lost - текст песни, таба, видео

Печатать
Просмотров: 191
---------------------------------------------------------------------
               They Say (My soul was lost) - Systematic
---------------------------------------------------------------------
Tabbed by: Edd
Email: ed_sk8_87@hotmail.com
It's an easy song, just listen it, and you'll find out the rythm.
Intro
Guitar 1
e|---------------------------|
B|---------------------------|
G|-------------------10------| Play this
D|-8888-888-99-66-88---------| 4 times
A|---------------------------|
E|---------------------------|

Pre-verse
Guitar 1
e|---------------------------|
B|---------------------------|
G|-------------------10------| Play this
D|-8888-888-99-66-88---------| 4 times
A|---------------------------|
E|---------------------------|
Guitar 2
e|---------------------------|
B|---------------------------|
G|---------------------------| Play this
D|---------------------------| 4 times
A|-------------------8-------|
E|-6666-666-77-44-66---------|

Verse
Guitar 1
e|---------------------------|
B|---------------------------|
G|-------------------10------| Play this
D|-8888-888-99-66-88---------| 16 times 
A|---------------------------|
E|---------------------------|
Guitar 2
e|---------------------------|
B|---------------------------|
G|---------------------------| Play this
D|---------------------------| 16 times
A|-------------------8-------|
E|-6666-666-77-44-66---------|

Chorus (They say that my soul...)
Guitar 1 & 2
e|---------------------------|
B|---------------------------|
G|-11~~~-10---8~~~-----------|
D|-11~~~-10---8~~~---8-------|
A|--9~~~--8---6~~~---8-------|
E|--9~~~--8---6~~~---6-------|
                     *
Guitar 1
e|---------------------------|
B|---------------------------|
G|-------------------10------| Play this
D|-8888-888-99-66-88---------| 2 times 
A|---------------------------|
E|---------------------------|
Guitar 1 & 2
e|---------------------------|
B|---------------------------|
G|-11~~~-10---8~~~-----------|
D|-11~~~-10---8~~~---8-------|
A|--9~~~--8---6~~~---8-------|
E|--9~~~--8---6~~~---6-------|
                     *

Pre-verse
Guitar 1
e|---------------------------|
B|---------------------------|
G|-------------------10------| Play this
D|-8888-888-99-66-88---------| 4 times
A|---------------------------|
E|---------------------------|
Guitar 2
e|---------------------------|
B|---------------------------|
G|---------------------------| Play this
D|---------------------------| 4 times
A|-------------------8-------|
E|-6666-666-77-44-66---------|

Verse
Guitar 1
e|---------------------------|
B|---------------------------|
G|-------------------10------| Play this
D|-8888-888-99-66-88---------| 16 times 
A|---------------------------|
E|---------------------------|
Guitar 2
e|---------------------------|
B|---------------------------|
G|---------------------------| Play this
D|---------------------------| 16 times
A|-------------------8-------|
E|-6666-666-77-44-66---------|

Chorus (They say that my soul...)
Guitar 1 & 2
e|---------------------------|
B|---------------------------|
G|-11~~~-10---8~~~-----------|
D|-11~~~-10---8~~~---8-------|
A|--9~~~--8---6~~~---8-------|
E|--9~~~--8---6~~~---6-------|
                     *
Guitar 1
e|---------------------------|
B|---------------------------|
G|-------------------10------| Play this
D|-8888-888-99-66-88---------| 2 times 
A|---------------------------|
E|---------------------------|
Guitar 1 & 2
e|---------------------------|
B|---------------------------|
G|-11~~~-10---8~~~-----------|
D|-11~~~-10---8~~~---8-------|
A|--9~~~--8---6~~~---8-------|
E|--9~~~--8---6~~~---6-------|
                     *

Pre-solo
Guitar 1                  Then play this
  Play this part 3 times  at the fourth time
e|-----------------------|----------|
B|-----------------------|----------|
G|-------------------10--|----------| 
D|-8888-888-99-66-88-----|-8—(x16)--|  
A|-----------------------|----------|
E|-----------------------|----------|
Guitar 2
e|---------------------------|
B|---------------------------|
G|---------------------------| Play this
D|---------------------------| 4 times
A|-------------------8-------|
E|-6666-666-77-44-66---------|

Solo
Guitar 1 (use a heavier distortion)
Play this twice
e|-----------------------------------------------------------------------|
B|---17----19/17-------17----19/17-------15----14/15-------15----14/15---|
G|15----15-------15-15----15-------15/13----13-------13-13----13-------13|
D|-----------------------------------------------------------------------|
A|-----------------------------------------------------------------------|
E|-----------------------------------------------------------------------|
Guitar 2
e|---------------------------|
B|---------------------------|
G|---------------------------| Play this
D|---------------------------| 8 times
A|-------------------8-------|
E|-6666-666-77-44-66---------|
Guitar 1
e|------------------------------------|
B|-17-17-17-17-17-17-17-17-17---17----|
G|------------------------------------|
D|------------------------------------|
A|------------------------------------|
E|------------------------------------|
Then start bending the string slowly.
e|--------------------------------------|
B|----17^17^17^17^17^17^17^17^17^17^^^--|
G|--------------------------------------| 
D|--------------------------------------|
A|--------------------------------------|
E|--------------------------------------|
Guitar 2
e|---------------------------|
B|---------------------------|
G|---------------------------| Play this
D|---------------------------| 4 times
A|---------------------------|
E|-6666-666-77-44-66-0-------|

Outro
Guitar 1 & 2
e|------------------------------------------------|
B|------------------------------------------------|
G|-11~~~-10--8~~~-11~~~-10--8~~~-11~~~-10--8~~~---|
D|-11~~~-10--8~~~-11~~~-10--8~~~-11~~~-10--8~~~-8-|
A|--9~~~--8--6~~~--9~~~--8--6~~~--9~~~--8--6~~~-8-|
E|--9~~~--8--6~~~--9~~~--8--6~~~--9~~~--8--6~~~-6-|
Guitar 1
e|--------|
B|--------|
G|--------|
D|--8^^^--|
A|--------|
E|--------|

I hope you liked it, any comment olease e-mail me, and don't forget to rate it, ok? BE COOOOOOOL!!!!!!

| /  slide up
| \  slide down
| h  hammer-on
| p  pull-off
| ~  vibrato
| +  harmonic
| x  Mute note
| ^  Bend String
| *  Palm Mute
=================================================================
Добавлено: 26.05.2012
Другие материалы по этой песне:
  • Аккорды и текст

Страница создана 26.05.2012
http://primanota.ru/systematic/they-say-my-soul-was-lost-chords.htm
Привет, Гость.
Предлагаем пройти революционный курс по гитаре.
Подарок от PrimaNota.Ru, забирай!