PrimaNota.ru - самый крупный в мире бесплатный архив песенных текстов, аккордов, табулатур и нот


System Of A Down - U-fig - аккорды и текст, таба, видео

Регистрация Запомнить меня
Войти через:  Facebook Google Twitter Vk Yandex Mail.ru

System Of A Down - U-fig - аккорды и текст, таба, видео

Печатать
Просмотров: 421
Уроки эстрадного вокала в Санкт-Петербурге
Авторы музыки: Daron Malakian, Shavo Odadjian
Авторы текста: Daron Malakian, Serj Tankian
U-fig
System Of A Down
E|--------------------------------------------------------------------------|
B|--------------------------------------------------------------------------|
G|--------------------------------------------------------------------------|
D|----8-----7-----10-----12------13------12-----10-----8-----8-----7-----10-|
A|--------------------------------------------------------------------------|
E|0-5---5---3/7----7/8----8/10----108----8----7---5-5---5---3/7----|
Intro

E|-----------------------------------------------------------------------------|
B|-----------------------------------------------------------------------------|
G|-----------------------------------------------------------------------------|
D|----12------13------12-----10-----8-----8-----7-----10-----12------13-----12-|
A|-----------------------------------------------------------------------------|
E|7/8----8/10----108----8----7---5-5---5---3/7----7/8----8/10----108---|

E|--------------------------------------------------------------------|
B|--------------------------------------------------------------------|
G|--------------------------------------------------------------------|
D|----10-----8-----8-----7-----10-----12------13------12-----10-----8-|
A|--------------------------------------------------------------------|
E|8----7---5-5---5---3/7----7/8----8/10----108----8----7---|

E|----------------------------------------------------------------|
B|----------------------------------------------------------------|
G|----------------------------------------------------------------|
D|5555555-5555555-5555555-5555555-5555555-5555555-5555555-5555555-|
A|5555555-5555555-5555555-5555555-5555555-5555555-5555555-5555555-|
E|5555555-5555555-5555555-5555555-5555555-5555555-5555555-5555555-|
Chorus

E|----------------------------------------------------------------|
B|----------------------------------------------------------------|
G|----------------------------------------------------------------|
D|5555555-5555555-5555555-5555555-5555555-5555555-5555555-55555h6-|
A|5555555-5555555-5555555-5555555-5555555-5555555-5555555-55555h6-|
E|5555555-5555555-5555555-5555555-5555555-5555555-5555555-55555h6-|
2nd Chorus

E|----------------------------|
B|----------------------------|
G|----------------------------|
D|5555h6-5555h6-5555h6-5555h6-|
A|5555h6-5555h6-5555h6-5555h6-|
E|5555h6-5555h6-5555h6-5555h6-|
I don't see (anymore)

E|-------------------------------------------------------|
B|-------------------------------------------------------|
G|12-12-10//14-14//15-15//17-17
-15-14
-12-|
D|-------------------------------------------------------|
A|10-108--8-//12-12//13-13//15-15-13
-12-10-|
E|-------------------------------------------------------|
Solo

E|---------------------------------------------------------------------------|
B|---------------------------------------------------------------------------|
G|12-12-12-12-12-12-12-10-10-10-10-10-10-10-10-14-14-14-14-14-14-14-14-15-15-|
D|---------------------------------------------------------------------------|
A|---------------------------------------------------------------------------|
E|---------------------------------------------------------------------------|
This here you use an artificial harmonic

E|---------------------------------------------------------------------------|
B|---------------------------------------------------------------------------|
G|15-15-15-15-15-15-17-17-17-17-17-17-17-17-15-15-15-15-15-15-15-15-14-14-14-|
D|---------------------------------------------------------------------------|
A|---------------------------------------------------------------------------|
E|---------------------------------------------------------------------------|

E|------------------------------------------------------------------|
B|------------------------------------------------------------------|
G|14-14-14-14-14-12v------------------------------------------------|
D|-------------------5-5-3//7-7//8-8//10-108-8-7-5-5-5-5-|
A|-------------------5-5-3//7-7//8-8//10-108-8-7-5-5-5-5-|
E|-------------------5-5-3//7-7//8-8//10-108-8-7-5-5-5-5-|

E|-----------------------------------------------|
B|-----------------------------------------------|
G|-----------------------------------------------|
D|5-5-3//7-7//8-8//10-108-8-7-5-5-5-5-|
A|5-5-3//7-7//8-8//10-108-8-7-5-5-5-5-|
E|5-5-3//7-7//8-8//10-108-8-7-5-5-5-5-|

E|----------------------------------------------------------------|
B|----------------------------------------------------------------|
G|----------------------------------------------------------------|
D|5555555-5555555-5555555-5555555-5555555-5555555-5555555-55555h6-|
A|5555555-5555555-5555555-5555555-5555555-5555555-5555555-55555h6-|
E|5555555-5555555-5555555-5555555-5555555-5555555-5555555-55555h6-|

E|----------------------------------------|
B|----------------------------------------|
G|----------------------------------------|
D|5-5-5-5h6-5-5-5-5h6-5-5-5-5h6-5-5-5-5h6-|
A|5-5-5-5h6-5-5-5-5h6-5-5-5-5h6-5-5-5-5h6-|
E|5-5-5-5h6-5-5-5-5h6-5-5-5-5h6-5-5-5-5h6-|
Добавлено: 02.05.2015
Другие материалы по этой песне:

Страница создана 22.02.2012
http://primanota.ru/system-of-a-down/u-fig-chords.htm
Привет, Гость.
Предлагаем пройти революционный курс по гитаре.
Подарок от PrimaNota.Ru, забирай!