PrimaNota.ru - самый крупный в мире бесплатный архив песенных текстов, аккордов, табулатур и нот


System Of A Down - Temper - аккорды и текст, таба, бас-таба, видео

Регистрация Запомнить меня
Войти через:  Facebook Google Twitter Vk Yandex Mail.ru

System Of A Down - Temper - аккорды и текст, таба, бас-таба, видео

Печатать
Просмотров: 577
Temper
System Of A Down
		   -=Temper=-
==========
This song's tuning is drop D; then all strings down one whole step
(C-G-C-F-A-D)


Artist: System of a down
Release: Demo
Transcribed by: Benjamin Marschner
Email: Leerebirne@web.de
HP: www.systemofadowntabs.de.vu


A
1:-------------------------------------------------|
2:------------------------2^3---2^3--1--------1--1-|
3:-/3--3--2b3r2-0--0-2--2---------------3---3------|
4:-------------------------------------------------|
5:-------------------------------------------------|
6:-------------------------------------------------|

1:-----------1-------3----5-6---5-6-5---------------|
2:-2^3--1-3-----4------6---------------3--3-4---4-3-|
3:--------------------------------------------------|
4:--------------------------------------------------|
5:--------------------------------------------------|
6:--------------------------------------------------|


B
1:-------|
2:-4-3---|
3:-------|
4:-------|
5:-------|
6:-------|


C
1:---------------------------------|
2:---------------------------------|
3:---------------------------------|
4:-5-5-5-5-5-5-5-5-1-1-1-1-3-3-3-3-|
5:-5-5-5-5-5-5-5-5-1-1-1-1-3-3-3-3-|
6:-5-5-5-5-5-5-5-5-1-1-1-1-3-3-3-3-|


D
1:-------------------------|-----------------------|
2:-------------------------|-----------------------|
3:-------------------------|-----------------------|
4:-------------------------|-----------------------|
5:-------------------------|-----------------------|
6:-5----5--3--1---1-3--3-5-|--0-5--3--1---1-3--3-5-|


E
1:--------------------------------------------------|-----------------------------------|
2:--------------------------------------------------|-2^3---3--3-4--4/6--4----3-4-3b4r3-|
3:-3---3--5--5/7--5/3\5--3-2-3^2^0--0--0-2--3-3/5-2-|----------------------5------------|
4:--------------------------------------------------|-----------------------------------|
5:--------------------------------------------------|-----------------------------------|
6:--------------------------------------------------|-----------------------------------|
                                                      4x:
1:-------------------------|------|-----------------|-----------------|
2:---------------------4-3-|------|-3-3-3-3-3-3-4-4-|-3-3-3-3-3-3-3-3-|
3:-3--3-5--5/7--5^3^5------|------|-----------------|-----------------|
4:-------------------------|------|-----------------|-----------------|
5:-------------------------|------|-----------------|-----------------|
6:-------------------------|------|-----------------|-----------------|


F
1:-----2-3-2---2---|
2:-3-4-------4---4-|
3:-----------------|
4:-----------------|
5:-----------------|
6:-----------------|


ORDER:
=====

A
B 5x
C 4x
D
C 4x
E
F 16x
C 8x     
Добавлено: 30.10.2013
Другие материалы по этой песне:

Страница создана 25.02.2012
http://primanota.ru/system-of-a-down/temper-chords.htm
Привет, Гость.
Предлагаем пройти революционный курс по гитаре.
Подарок от PrimaNota.Ru, забирай!