PrimaNota.ru - самый крупный в мире бесплатный архив песенных текстов, аккордов, табулатур и нот


System Of A Down - Tawaves - аккорды и текст, таба, видео

Регистрация Запомнить меня
Войти через:  Facebook Google Twitter Vk Yandex Mail.ru

System Of A Down - Tawaves - аккорды и текст, таба, видео

Печатать
Просмотров: 181
Tawaves
System Of A Down
Tabs by Javier Rodr?guez

a
2x:                         1x:                       1x:
pm....................................................................
E|-------------------------|-------------------------|-----------------|
B|-------------------------|-------------------------|-----------------|
G|-------------------------|-------------------------|-----------------|
D|-------------------------|-------------------------|-----------------|
A|-11-12-11-12-11-12-11-12-|-12-12-12-12-12-12-12-12-|-5-7-5-5-5-5-5-5-|
E|-11-12-11-12-11-12-11-12-|-12-12-12-12-12-12-12-12-|-5-7-5-5-5-5-5-5-|

b
2x:                        1x:                        1x:
pm..............................................................
E|-------------------------|-------------------------|-----------|
B|-------------------------|-------------------------|-----------|
G|-------------------------|-------------------------|-----------|
D|-------------------------|-------------------------|-----------|
A|-11-12-11-12-11-12-11-12-|-12-12-12-12-12-12-12-12-|-5-7-5-5-5-|
E|-11-12-11-12-11-12-11-12-|-12-12-12-12-12-12-12-12-|-5-7-5-5-5-|

c
pm..................................
E|-----------------|-----------------|----------------|
B|-----------------|-----------------|----------------|
G|-----------------|-----------------|----------------|
D|-----------------|-----------------|-------ah4--ah4-|
A|-----------------|-----------------|----------------|
E|-5-5-5-5-5-7-5-5-|-5-5-5-5-5-7-5-5-|-4--4-----------|

d
pm..................................
E|-----------------|-----------------|-------------------------|
B|-----------------|-----------------|-------------------------|
G|-----------------|-----------------|-------------------------|
D|-----------------|-----------------|---ah4---ah4---ah4---ah4-|
A|-----------------|-----------------|-------------------------|
E|-5-5-5-5-5-7-5-5-|-5-5-5-5-5-7-5-5-|-4-----4-----4-----4-----|

e
E|---------------|---------------|---------------------|
B|---------------|---------------|---------------------|
G|---------------|---------------|---------------------|
D|-5--5--0-0-0-0-|-5--5--0-0-0-0-|-4--4--4--4--4-4-4-4-|
A|-5--5--0-0-0-0-|-5--5--0-0-0-0-|-4--4--4--4--4-4-4-4-|
E|-5--5--0-0-0-0-|-5--5--0-0-0-0-|-4--4--4--4--4-4-4-4-|

E|---------------|---------------|
B|---------------|---------------|
G|---------------|---------------|
D|-5--5--0-0-0-0-|-5--5--0-0-0-0-|
A|-5--5--0-0-0-0-|-5--5--0-0-0-0-|
E|-5--5--0-0-0-0-|-5--5--0-0-0-0-|

f
E|--------------------|------------------|
B|--------------------|------------------|
G|--------------------|------------------|
D|-4--5--4--5/7--5--4-|-4--5-------------|
A|-4--5--4--5/7--5--4-|-4--5--0--2--4--5-|
E|-4--5--4--5/7--5--4-|-4--5-------------|

E|--------------------|--------------------|
B|--------------------|--------------------|
G|--------------------|--------------------|
D|-4--5--4--5/7--5--4-|--------------------|
A|-4--5--4--5/7--5--4-|-2--4--2--4/5--4--2-|
E|-4--5--4--5/7--5--4-|--------------------|

g
E|--------------------|
B|--------------------|
G|--------------------|
D|-4--5--4--5/7--5--4-|
A|-4--5--4--5/7--5--4-|
E|-4--5--4--5/7--5--4-|

Solo:
E|-7-7-7-7-7-7-7-7-|-9-9-9-9-10-10-10-10-|
B|-----------------|---------------------|
G|-----------------|---------------------|
D|-----------------|---------------------|
A|-----------------|---------------------|
E|-----------------|---------------------|

E|-9-9-9-9-9-9-9-9-|-----------------|
B|-----------------|-8-8-8-8-7-7-7-7-|
G|-----------------|-----------------|
D|-----------------|-----------------|
A|-----------------|-----------------|
E|-----------------|-----------------|

E|-7-7-7-7-7-7-7-7-|-9-9-9-9-10-10-10-10-|
B|-----------------|---------------------|
G|-----------------|---------------------|
D|-----------------|---------------------|
A|-----------------|---------------------|
E|-----------------|---------------------|

E|-9-9-9-9-9-9-9-9/|-14-14-14-14-14-14-14-14-|
B|-----------------|-------------------------|
G|-----------------|-------------------------|
D|-----------------|-------------------------|
A|-----------------|-------------------------|
E|-----------------|-------------------------|

E|-7-7-7-7-7-7-7-7-|-9-9-9-9-10-10-10-10-|
B|-----------------|---------------------|
G|-----------------|---------------------|
D|-----------------|---------------------|
A|-----------------|---------------------|
E|-----------------|---------------------|

E|-9-9-9-9-9-9-9-9-|-----------------|
B|-----------------|-8-8-8-8-7-7-7-7-|
G|-----------------|-----------------|
D|-----------------|-----------------|
A|-----------------|-----------------|
E|-----------------|-----------------|

E|-7-7-7-7-7-7-7-7-|-9-9-9-9-10-10-10-10-|
B|-----------------|---------------------|
G|-----------------|---------------------|
D|-----------------|---------------------|
A|-----------------|---------------------|
E|-----------------|---------------------|

E|-9-9-9-9-9-9-9-9/|-14-14-14-14-14-14-14-14-|
B|-----------------|-------------------------|
G|-----------------|-------------------------|
D|-----------------|-------------------------|
A|-----------------|-------------------------|
E|-----------------|-------------------------|

E|-15--14-12-14--12-10-12--10-9-10--9-|
B|------------------------------------|
G|------------------------------------|
D|------------------------------------|
A|------------------------------------|
E|------------------------------------|

E|-12--10-9-10--9-7-6-7-9--9--9--9-99/7--7--7--7-|
B|-----------------------------------------------|
G|-----------------------------------------------|
D|-----------------------------------------------|
A|-----------------------------------------------|
E|-----------------------------------------------|

E|-6--6--6--6--7--7--7--7--66666666-66666666-|
B|-------------------------------------------|
G|-------------------------------------------|
D|-------------------------------------------|
A|-------------------------------------------|
E|-------------------------------------------|

ORDER:
a 3x
b
c, d, c, d
e
f 2x
c
c, d, c, d
e
g
e
f 2x
Solo
e
g
e
f 2x
Добавлено: 02.05.2015
Другие материалы по этой песне:
  • Аккорды и текст

Страница создана 06.03.2012
http://primanota.ru/system-of-a-down/tawaves-chords.htm
Привет, Гость.
Предлагаем пройти революционный курс по гитаре.
Подарок от PrimaNota.Ru, забирай!