PrimaNota.ru - самый крупный в мире бесплатный архив песенных текстов, аккордов, табулатур и нот


System Of A Down - Suite-pee - текст песни, таба, видео

Регистрация Запомнить меня
Войти через:  Facebook Google Twitter Vk Yandex Mail.ru

System Of A Down - Suite-pee - текст песни, таба, видео

Печатать
Просмотров: 274
Авторы музыки: Daron Malakian
Авторы текста: Serj Tankian
          Artist: System Of A Down
           Album: System Of A Down
            Song: Suite-Pee
          Tuning: Drop-D (DADGBE)
          Tab by: The New Bush Killer
 If you have any: question, suggestion or if you want to kill bush
 here is my mail: www.bushkillersince1991@wanadoo.fr

  ----------------------------
  < > - Natural Harmonic
  b&r - Bend & Realease (Full)
  \ / - Slide
  ----------------------------

Intro (very fast)
E|--------------------------------------------------------------|
B|--------------------------------------------------------------|
G|-<5\4\3\2/3/4/5>----------------------------------------------|
D|----------------<5\4\3\2/3/4/5>---------------<5\4\3\2/3/4/5>-|
A|-------------------------------<5\4\3\2/3/4/5>----------------|
D|--------------------------------------------------------------|
 
 
Verse 1
E|---------------------------------------------------------------|
B|---------------------------------------------------------------|
G|---------------------------------------------------------------|
D|--0-0-0-0-1-0-1--0-0-0-0-1-0-1--0-0-0-0-1-0-1--0-0-0-0-1-0-12--|
A|--0-0-0-0-1-0-1--0-0-0-0-1-0-1--0-0-0-0-1-0-1--0-0-0-0-1-0-12--|
D|--0-0-0-0-1-0-1--0-0-0-0-1-0-1--0-0-0-0-1-0-1--0-0-0-0-1-0-12--|


Verse 2
E|-------------------------------8/9--|
B|------------------------------------|
G|--5-5-5-5-6-5-6--5-5-5-5-6-5-6------|
D|------------------------------------|
A|------------------------------------|
D|------------------------------------|


Bass Only
(But you can do it without distortion)
E|---------------|
B|---------------|
G|---------------|
D|---------------|
A|---------------|
D|--0-1-0-0-5-4--|


Break 1                           Variation 1
E|------------------|             E|------------|
B|------------------|             B|------------|
G|------------------|             G|------------|
D|--0-1-0--0--5--4--|             D|-4--5--4b&r-| 
A|--0-1-0--0--5--4--|             E|-4----------|
D|--0-1-0--0--5--4--|             D|-4----------|
  "Lie naked on the floor..."


Break 2
E|-----------------------|
B|-----------------------|
G|--5-6-5-5--5--10-9--9--|
D|-----------------------|
A|--3-4-3-3--3---8-7-----|
D|-----------------------|


Outro                              Varation 2 
E|-----------8/9-9-|               E|-------------|
B|-----------------|               B|-------------|
G|-5-6-5-6-5-------|               G|--5-6--------|
D|-----------------|               D|------0-1-0--|
A|-----------------|               A|------0-1-0--|
D|-----------------|               D|------0-1-0--|
 "The following of a christ..."


    -------ORDER-------
      Intro: 2X
    Verse 1: 2X  (0:09)
    Verse 2: 4X  (0:20)
    Verse 1: 2X  (0:29)
    Verse 2: 4X  (0:40)
    Verse 1: 2X  (0:49)
  Bass only: 1X  (1:00)
    Break 1: 4X  (1:03)
    Break 1: 4X  (1:16) -same but Palm Muted-
Variation 1: 1X  (1:28)
    Break 1: 4X  (1:30) -same but Palm Muted-
    Break 1: 4X  (1:43)
    Break 2: 4X  (1:57)
    Verse 1: 2X  (2:10)
      Outro: 6X  (2:20)
Variation 2: 1X  (2:29)
    -------------------

                                              ...Play loud...


Добавлено: 10.08.2013
Другие материалы по этой песне:

Страница создана 21.03.2012
http://primanota.ru/system-of-a-down/suite-pee-2-chords.htm
Привет, Гость.
Предлагаем пройти революционный курс по гитаре.
Подарок от PrimaNota.Ru, забирай!