PrimaNota.ru - самый крупный в мире бесплатный архив песенных текстов, аккордов, табулатур и нот


System Of A Down - Sugar1 - таба, видео

Регистрация Запомнить меня
Войти через:  Facebook Google Twitter Vk Yandex Mail.ru

System Of A Down - Sugar1 - таба, видео

Печатать
Просмотров: 134


SUGAR 
This song's tuning is drop D; then all strings down one whole step
(C-G-C-F-A-D)


A
4x:
1:------------------------------------|
2:------------------------------------|
3:------------------------------------|
4:-0-7-6-5--0-7-6-5--0-7-6-5--0-7-6-5-|
5:-0-7-6-5--0-7-6-5--0-7-6-5--0-7-6-5-|
6:-0-7-6-5--0-7-6-5--0-7-6-5--0-7-6-5-|


B
  3x:                               1x:
1:----13---13-12----------10--10-|-----13~~~~~-13-12~-------------10----10----10----10----|
2:-10-------------13---10----------|-10~----------------13~~~~~--10----10----10----10----10-|
3:---------------------------------|--------------------------------------------------------|
4:---------------------------------|--------------------------------------------------------|
5:---------------------------------|--------------------------------------------------------|
6:---------------------------------|--------------------------------------------------------|


C
  2x:                               1x:
1:----13---13-12----------10--10-|-----13~~~~~-13-12~-------------10----10----10----10----|
2:-10-------------13---10----------|-10~----------------13~~~~~--10----10----10----10----10-|
3:---------------------------------|--------------------------------------------------------|
4:---------------------------------|--------------------------------------------------------|
5:---------------------------------|--------------------------------------------------------|
6:---------------------------------|--------------------------------------------------------|


D
  4x:       1x: 12x: (it goes faster and faster...)
1:---------|---|-------------------------|
2:---------|---|-------------------------|
3:---------|---|-------------------------|
4:-1---1-0-|-1-|-12-1-1-0-0---12-1-0-1-|
5:-1---1-0-|-1-|-12-1-1-0-0---12-1-0-1-|
6:-1---1-0-|-1-|-12-1-1-0-0---12-1-0-1-|


ORDER:
=====

A
B
A
C
A
D
A

Добавлено: 23.08.2013
Другие материалы по этой песне:
  • Аккорды и текст

Страница создана 23.08.2013
http://primanota.ru/system-of-a-down/sugar1-chords.htm
Привет, Гость.
Предлагаем пройти революционный курс по гитаре.
Подарок от PrimaNota.Ru, забирай!