PrimaNota.ru - самый крупный в мире бесплатный архив песенных текстов, аккордов, табулатур и нот


System Of A Down - Sugar Complete - аккорды и текст, видео

Регистрация Запомнить меня
Войти через:  Facebook Google Twitter Vk Yandex Mail.ru

System Of A Down - Sugar Complete - аккорды и текст, видео

Печатать
Просмотров: 109
Sugar Complete
System Of A Down
Intro: Bass
(00:00 - 00:01)

Chorus:
(00:01 - 00:15)
D|-----------------------------------------------------------------------|
A|-----------------------------------------------------------------------|
F|-----------------------------------------------------------------------|
C|-0-7-6-5-0-7-6-5--0-7-6-5--0-7-6-5--0-7-6-5--0-7-6-5--0-7-6-5--0-7-6-5-|
G|-0-7-6-5-0-7-6-5--0-7-6-5--0-7-6-5--0-7-6-5--0-7-6-5--0-7-6-5--0-7-6-5-|
C|-0-7-6-5-0-7-6-5--0-7-6-5--0-7-6-5--0-7-6-5--0-7-6-5--0-7-6-5--0-7-6-5-|
"The Kombucha Mushroom People..."

D|-----------------------------------------------------------------------|
A|-----------------------------------------------------------------------|
F|-----------------------------------------------------------------------|
C|-0-7-6-5-0-7-6-5--0-7-6-5--0-7-6-5--0-7-6-5--0-7-6-5--0-7-6-5--0-7-6-5-|
G|-0-7-6-5-0-7-6-5--0-7-6-5--0-7-6-5--0-7-6-5--0-7-6-5--0-7-6-5--0-7-6-5-|
C|-0-7-6-5-0-7-6-5--0-7-6-5--0-7-6-5--0-7-6-5--0-7-6-5--0-7-6-5--0-7-6-5-|
"Who Can Believe You..."

Interlude: Bass
(00:15 - 00:19)

Verse:
(00:19 - 00:40)
D|----13-13-12-------10b--------10b-|
A|-10----------13-10----------------|
F|----------------------------------|
C|----------------------------------|
G|----------------------------------|
C|----------------------------------|

D|----13-13-12-------10b---------10b-|
A|-10----------13-10-----------------|
F|-----------------------------------|
C|-----------------------------------|
G|-----------------------------------|
C|-----------------------------------|
"Well I'm Not There..."

D|----13-13-12-------10b---------10b-|
A|-10----------13-10-----------------|
F|-----------------------------------|
C|-----------------------------------|
G|-----------------------------------|
C|-----------------------------------|
"I Play Russian Roulette..."

Verse End:
(00:40 - 00:49)
D|---------------1313131313131313131313-|
A|-10-1010101010------------------------|
F|--------------------------------------|
C|--------------------------------------|
G|--------------------------------------|
C|--------------------------------------|

D|-12121212121212--10r----10r----10r----10r----|
A|--------------------10r----10r----10r----10r-|
F|---------------------------------------------|
C|---------------------------------------------|
G|---------------------------------------------|
C|---------------------------------------------|
"You Know That Every Time..."

Chorus:
(00:49 - 01:02)
D|-----------------------------------------------------------------------|
A|-----------------------------------------------------------------------|
F|-----------------------------------------------------------------------|
C|-0-7-6-5-0-7-6-5--0-7-6-5--0-7-6-5--0-7-6-5--0-7-6-5--0-7-6-5--0-7-6-5-|
G|-0-7-6-5-0-7-6-5--0-7-6-5--0-7-6-5--0-7-6-5--0-7-6-5--0-7-6-5--0-7-6-5-|
C|-0-7-6-5-0-7-6-5--0-7-6-5--0-7-6-5--0-7-6-5--0-7-6-5--0-7-6-5--0-7-6-5-|
"The Kombucha Mushroom People..."

D|-----------------------------------------------------------------------|
A|-----------------------------------------------------------------------|
F|-----------------------------------------------------------------------|
C|-0-7-6-5-0-7-6-5--0-7-6-5--0-7-6-5--0-7-6-5--0-7-6-5--0-7-6-5--0-7-6-5-|
G|-0-7-6-5-0-7-6-5--0-7-6-5--0-7-6-5--0-7-6-5--0-7-6-5--0-7-6-5--0-7-6-5-|
C|-0-7-6-5-0-7-6-5--0-7-6-5--0-7-6-5--0-7-6-5--0-7-6-5--0-7-6-5--0-7-6-5-|
"Who Can Believe You..."

Interlude: Bass
(01:02 - 01:06)

Verse:
(01:06 - 01:21)
D|----13-13-12-------10b---------10b-|
A|-10----------13-10-----------------|
F|-----------------------------------|
C|-----------------------------------|
G|-----------------------------------|
C|-----------------------------------|
"I Got А Gun..."

D|----13-13-12-------10b---------10b-|
A|-10----------13-10-----------------|
F|-----------------------------------|
C|-----------------------------------|
G|-----------------------------------|
C|-----------------------------------|
"My Girl You Know..."

Verse End:
(01:21 - 01:29)
D|---------------1313131313131313131313-12121212121212--|
A|-10-1010101010----------------------------------------|
F|------------------------------------------------------|
C|------------------------------------------------------|
G|------------------------------------------------------|
C|------------------------------------------------------|

D|-10r----10r----10r----10r----|
A|----10r----10r----10r----10r-|
F|-----------------------------|
C|-----------------------------|
G|-----------------------------|
C|-----------------------------|
"People Are Always Chasing Me Down..."

Chorus:
(01:29 - 01:43)
D|-----------------------------------------------------------------------|
A|-----------------------------------------------------------------------|
F|-----------------------------------------------------------------------|
C|-0-7-6-5-0-7-6-5--0-7-6-5--0-7-6-5--0-7-6-5--0-7-6-5--0-7-6-5--0-7-6-5-|
G|-0-7-6-5-0-7-6-5--0-7-6-5--0-7-6-5--0-7-6-5--0-7-6-5--0-7-6-5--0-7-6-5-|
C|-0-7-6-5-0-7-6-5--0-7-6-5--0-7-6-5--0-7-6-5--0-7-6-5--0-7-6-5--0-7-6-5-|
"The Kombucha Mushroom People..."

D|-----------------------------------------------------------------------|
A|-----------------------------------------------------------------------|
F|-----------------------------------------------------------------------|
C|-0-7-6-5-0-7-6-5--0-7-6-5--0-7-6-5--0-7-6-5--0-7-6-5--0-7-6-5--0-7-6-5-|
G|-0-7-6-5-0-7-6-5--0-7-6-5--0-7-6-5--0-7-6-5--0-7-6-5--0-7-6-5--0-7-6-5-|
C|-0-7-6-5-0-7-6-5--0-7-6-5--0-7-6-5--0-7-6-5--0-7-6-5--0-7-6-5--0-7-6-5-|
"Who Can Believe You..."

Interlude:
(01:47 - 01:49)
D|--------------------------------------|
A|--------------------------------------|
F|--------------------------------------|
C|-1--------------------------------1-0-|
G|-1--------------------------------1-0-|
C|-1--------------------------------1-0-|
"I Sit" "In My Desolate Room"
(01:50 - 01:51)
D|--------------------------------------|
A|--------------------------------------|
F|--------------------------------------|
C|-1--------------------------------1-0-|
G|-1--------------------------------1-0-|
C|-1--------------------------------1-0-|
"No Lights" "No Music"
(01:51 - 01:54)
D|--------------------------------------|
A|--------------------------------------|
F|--------------------------------------|
C|-1--------------------------------1-0-|
G|-1--------------------------------1-0-|
C|-1--------------------------------1-0-|
"Just Anger" "I've Killed Everyone"
(01:55 - 01:58)
D|--------------------------------------|
A|--------------------------------------|
F|--------------------------------------|
C|-1--------------------------------1-0-|
G|-1--------------------------------1-0-|
C|-1--------------------------------1-0-|
"I'm Away Forever" "But I'm Feeling Better"

Outro:
(01:58 - 02:22)
D|-----------------------------------------|
A|-----------------------------------------|
F|-----------------------------------------|
C|-1-0-0-0-0-1-0-0-1-0-0-0-0-1-0-0-1-0-0-0-|
G|-1-0-0-0-0-1-0-0-1-0-0-0-0-1-0-0-1-0-0-0-|
C|-1-0-0-0-0-1-0-0-1-0-0-0-0-1-0-0-1-0-0-0-|

D|-------------------------------------------|
A|-------------------------------------------|
F|-------------------------------------------|
C|-0-1-0-0-1-0-0-0-0-1-0-0-1-0-0-0-0-1-0-0-1-|
G|-0-1-0-0-1-0-0-0-0-1-0-0-1-0-0-0-0-1-0-0-1-|
C|-0-1-0-0-1-0-0-0-0-1-0-0-1-0-0-0-0-1-0-0-1-|
"How Do Feel..."

D|-------------------------------------------|
A|-------------------------------------------|
F|-------------------------------------------|
C|-1-0-0-0-0-1-0-0-1-0-0-0-0-1-0-0-1-0-0-0-0-|
G|-1-0-0-0-0-1-0-0-1-0-0-0-0-1-0-0-1-0-0-0-0-|
C|-1-0-0-0-0-1-0-0-1-0-0-0-0-1-0-0-1-0-0-0-0-|

D|-----------------------------------------|
A|-----------------------------------------|
F|-----------------------------------------|
C|-1-0-0-1-0-0-0-0-1-0-0-1-0-0-0-0-1-0-0-1-|
G|-1-0-0-1-0-0-0-0-1-0-0-1-0-0-0-0-1-0-0-1-|
C|-1-0-0-1-0-0-0-0-1-0-0-1-0-0-0-0-1-0-0-1-|
"How Do I Feel"
Добавлено: 25.09.2015
Другие материалы по этой песне:
  • Аккорды и текст

Страница создана 25.09.2015
http://primanota.ru/system-of-a-down/sugar-complete-chords.htm
Привет, Гость.
Предлагаем пройти революционный курс по гитаре.
Подарок от PrimaNota.Ru, забирай!