PrimaNota.ru - самый крупный в мире бесплатный архив песенных текстов, аккордов, табулатур и нот


System Of A Down - Stealing Society - текст песни, таба, видео

Регистрация Запомнить меня
Войти через:  Facebook Google Twitter Vk Yandex Mail.ru

System Of A Down - Stealing Society - текст песни, таба, видео

Печатать
Просмотров: 301
Авторы музыки: Daron Malakian
Авторы текста: Daron Malakian, Serj Tankian
Tuning: Dropped Db

Pretty Fast Song. I Like The Surfer Sounding Bridge

A 
|-----------------------------------------------------------------------|
|-----------------------------------------------------------------------|
|-----------------------------------------------------------------------|
|-6777677767776---6777677767776---67776---67776---6777677767776---------|
|-6777677767776---6777677767776---67776---67776---6777677767776---------|
|-6777677767776---6777677767776---67776---67776---6777677767776---------|
               yea           allright  yea   allright

B 
|-----------------------------------------------------------------------|
|-----------------------------------------------------------------------|
|-----------------------------------------------------------------------|
|-66766767976467--66766767976467--66766767976467--667667679-7-6-4-6-7---|
|-66766767976467--66766767976467--66766767976467--667667679-7-6-4-6-7---|
|-66766767976467--67766767976467--66766767976467--667667679-7-6-4-6-7---|

C
|-----------------------------------------------------------------------|
|-----------------------------------------------------------------------|
|-----------------------------------------------------------------------|
|-----------------------------------------------------------------------|
|-6666666766666676666666676666666667-55555555565555555565555555565555556|
|-----------------------------------------------------------------------|

D
|-----------------------------------------------------------------------|
|-----------------------------------------------------------------------|
|-----------------------------------------------------------------------|
|-9-9--9-6-6--6-11-11--11-6-6--6-8---------88889---------9999-----------|
|-9-9--9-6-6--6--9--9---9-6-6--6-6666666666666677777777777777-----------|
|-9-9--9-6-6--6-----------6-6--6----------------------------------------|

E
|-----------------------------------------------------------------------|
|-----------------------------------------------------------------------|
|-----------------------------------------------------------------------|
|-9-9--9-6-6--6-8-8--8-9-9--9-8---------88889---------9999--------------|
|-9-9--9-6-6--6-6-6--6-7-7--7-6666666666666677777777777777--------------|
|-9-9--9-6-6--6---------------------------------------------------------|

F                           G
|-------------------------|---------------------------------------------|
|-------------------------|---------------------------------------------|
|-------------------------|---------------------------------------------|
|-676-676-676-676-676-676-|-99764467------------------------------------|
|-676-676-676-676-676-676-|-99764467------------------------------------|
|-676-676-676-676-676-676-|-99764467------------------------------------|


H
|-----------------------------------------------------------------------|
|-----------------------------------------------------------------------|
|-----------------------------------------------------------------------|
|-6----8----9--12\--6----8----9--12\------------------------------------|
|-6----6----7--12\--6----6----7--12\------------------------------------|
|-6------------12\--6------------12\------------------------------------|

I
|-----------------------------------------------------------------------|
|-----------------------------------------------------------------------|
|----------------------------------------------------7-77777777777777---|
|-6-66666666666666-9-99999999999999-8-88888888888888-5-55555555555555---|
|-6-66666666666666-7-77777777777777-6-66666666666666--------------------|
|-6-66666666666666------------------------------------------------------|
      pm               pm               pm               pm

J                    K
|------------------|-----------------------------------------------------|
|------------------|-----------------------------------------------------|
|------------------|-----------------------------------------------------|
|-9x8-6x8-11x8-6x8-|-8-----------8888-9-----------9999-------------------|
|-9---6----9---6---|-6666666666666666-7777777777777777-------------------|
|-9---6--------6---|-----------------------------------------------------|

The End, Now Heres The Order

A
B
C x2
D
E
F
G
C x2
D
E
H
I x2
J
K
J
K
F
K
F with 2 extra power chords
K x3
A

That should be right the order might be a little of but if yuo listen to the song you will get it
Добавлено: 26.04.2012
Другие материалы по этой песне:

Страница создана 26.02.2012
http://primanota.ru/system-of-a-down/stealing-society-chords.htm
Привет, Гость.
Предлагаем пройти революционный курс по гитаре.
Подарок от PrimaNota.Ru, забирай!