PrimaNota.ru - самый крупный в мире бесплатный архив песенных текстов, аккордов, табулатур и нот


System Of A Down - Spiders - аккорды и текст, таба, бас-таба, драм-таба, видео

Регистрация Запомнить меня
Войти через:  Facebook Google Twitter Vk Yandex Mail.ru

System Of A Down - Spiders - аккорды и текст, таба, бас-таба, драм-таба, видео

Печатать
Просмотров: 1983
Авторы музыки: Daron Malakian
Авторы текста: Serj Tankian
Spiders
System Of A Down
intro

e|---------------------------------------
b|----------------------------------------
g|----------------------------------------
d|----------------------------------------
a|---9---9---7---7------10--9---9---7---7-
e|-0---0---0---0---0-0--------0---0---0---





e|---------------------------------------
b|---------------------------------------
g|---------------------------------------
d|---------------------------------------
a|------10-9-12-10-9p10----9---9---7---7-
e|--0-0------------------0---0---0---0---
Добавлено: 06.08.2013
Другие материалы по этой песне:

Страница создана 05.03.2012
http://primanota.ru/system-of-a-down/spiders-chords.htm
Привет, Гость.
Предлагаем пройти революционный курс по гитаре.
Подарок от PrimaNota.Ru, забирай!