PrimaNota.ru - самый крупный в мире бесплатный архив песенных текстов, аккордов, табулатур и нот


System Of A Down - Roulette Ukulele - таба, видео

Регистрация Запомнить меня
Войти через:  Facebook Google Twitter Vk Yandex Mail.ru

System Of A Down - Roulette Ukulele - таба, видео

Печатать
Просмотров: 760
-------------------------------------------------------------------------------
                             Roulette (ukulele) - SOAD
-------------------------------------------------------------------------------
Tabbed by: ningen7
E-mail: ningen15@gmail.com

Tuning:

intro/part 1
a|---6----6--|---10-----------|---8----8--|--------------|
e|-8--8-8--8-|-11-------10----|-9--9-9----|---8-----10---|
c|-----------|------7-10---10-|---------7-|-8--8-10---10-|
g|-----------|----------------|-----------|--------------|

part 2
a|---6----6--|-----------|----------------|--------------|
e|-8--8-8----|---7----7--|----10------10--|---8-----10---|
c|---------7-|-7--7-7--7-|-10---10-10---7-|-8--8-10---10-|
g|-----------|-----------|----------------|--------------|

solo
a|-3--3-5-6--5-6-8--5-6-8-6-5-3-5-6-5-3-3------------------------------------1-----1-----1----|
e|-----------------------------------------3-3--3-4-5-4-3-1-3-4-3-1-1--------3-5-3-2-3-2-2-4-4|
c|---------------------------------------------------------------------3-3-----------------4-4|
g|--------------------------------------------------------------------------------------------|


intro  x2

part 1 x2

part 2 x2

part 1 x4

part 2 x4

solo   x2

part 2 x4

part 1 x4

Добавлено: 02.05.2015
Другие материалы по этой песне:
  • Аккорды и текст

Страница создана 02.05.2015
http://primanota.ru/system-of-a-down/roulette-ukulele-chords.htm
Привет, Гость.
Предлагаем пройти революционный курс по гитаре.
Подарок от PrimaNota.Ru, забирай!