PrimaNota.ru - самый крупный в мире бесплатный архив песенных текстов, аккордов, табулатур и нот


System Of A Down - Psycho bdo live - таба, видео

Регистрация Запомнить меня
Войти через:  Facebook Google Twitter Vk Yandex Mail.ru

System Of A Down - Psycho bdo live - таба, видео

Печатать
Просмотров: 168


                            Psycho bdo live solo

 2006.
made by :james sullivan
Email:redsaturn0707@hotmail.com
Use my name in this tab if you post this tab :)







D||------0------0------0------0--|------0------0------------|
A||--15-----15-----15-----13-----|--13-----12-----10r-------|
F||------------------------------|--------------------------|
C||------------------------------|--------------------------|
G||------------------------------|--------------------------|
C||------------------------------|--------------------------|



--------------------|-----------------------------|
----------12--------|--10----9----9-9-9-9-9-9-9-9-|
--------------------|-----------------------------|
--------------------|-----------------------------|
--------------------|-----------------------------|
--------------------|-----------------------------|



------------------------------------------------|
--9-9-12-12-13-13-15-15-13-12-13-15-13-12-13-15-|
------------------------------------------------|
------------------------------------------------|
------------------------------------------------|
------------------------------------------------|



--------------------------------------------------|
--13-12-13-15-13-12-13-15-13-12-13-15-13-12-13-15-|
--------------------------------------------------|
--------------------------------------------------|
--------------------------------------------------|
--------------------------------------------------|



--------------------------------------------------|
--13-12-13-15-13-12-13-15-13-12-13-15-13-12-13-15-|
--------------------------------------------------|
--------------------------------------------------|
--------------------------------------------------|
--------------------------------------------------|



--------------------------12-12-12-12-13-15-15-15-|
--13-12-13-15-13-12-13-15-------------------------|
--------------------------------------------------|
--------------------------------------------------|
--------------------------------------------------|
--------------------------------------------------|



--13-12-13-12-13-12-13-12-13-12-13-12-10-12-10-8-|
-------------------------------------------------|
-------------------------------------------------|
-------------------------------------------------|
-------------------------------------------------|
-------------------------------------------------|



--10-8-10-8-10-8-10-8-8-8-8-7-10-8-|--7h8p7-5-7-8--8--8--8--8--|
-----------------------------------|---------------------------|
-----------------------------------|---------------------------|
-----------------------------------|---------------------------|
-----------------------------------|---------------------------|
-----------------------------------|---------------------------|



--8--8--8--8--8--8h-10--7--|--7--7--7--7--7--7--7--5--|
---------------------------|--------------------------|
---------------------------|--------------------------|
---------------------------|--------------------------|
---------------------------|--------------------------|
---------------------------|--------------------------|



--5--5--5--x--5--5--5--5--|--5--5--5--7--7--7--8--8--|
--------------------------|--------------------------|
--------------------------|--------------------------|
--------------------------|--------------------------|
--------------------------|--------------------------|
--------------------------|--------------------------|



--8--8--8--8--12----12-12h13p-|--12p-10h-12--10--8--7--7--7--|
------------------------------|------------------------------|
------------------------------|------------------------------|
------------------------------|------------------------------|
------------------------------|------------------------------|
------------------------------|------------------------------|



--7--8--8r-------8--7--|--8--8r-------8--8--8--|--20--8--8--7--7--7--7--7--|
-----------------------|-----------------------|---------------------------|
-----------------------|-----------------------|---------------------------|
-----------------------|-----------------------|---------------------------|
-----------------------|-----------------------|---------------------------|
-----------------------|-----------------------|---------------------------|



--5--4--4--5--7--7--7--7--|--7--7--7--7--7--7~x~7~7~7~7~|
--------------------------|-----------------------------|
--------------------------|-----------------------------|
--------------------------|-----------------------------|
--------------------------|-----------------------------|
--------------------------|-----------------------------|



--7~7~x~7~7~7~x~7~7~7~7~7~x~7~7~7~|--7~7~7~7~7~7~x~7~7~7~x~7~7~7~7~7~|
----------------------------------|----------------------------------|
----------------------------------|----------------------------------|
----------------------------------|----------------------------------|
----------------------------------|----------------------------------|
----------------------------------|----------------------------------|



--12--12-12h12h-13p-12p-10--12--10--|--8p-7h-8--x--10--10--10--10--10--|
------------------------------------|----------------------------------|
------------------------------------|----------------------------------|
------------------------------------|----------------------------------|
------------------------------------|----------------------------------|
------------------------------------|----------------------------------|



--10--8--7--7--7--7--7--5--|--5~5~5~5~5~x~5~5~x~5~5~5~5~5~x~5~|
---------------------------|----------------------------------|
---------------------------|----------------------------------|
---------------------------|----------------------------------|
---------------------------|----------------------------------|
---------------------------|----------------------------------|



--5~5~x~5~5~5~5~x~5~5~5~5~x~5~5~5~|--5~5~5~5~x~5~5~5~5~5~5~x~5~x~5~5~|
----------------------------------|----------------------------------|
----------------------------------|----------------------------------|
----------------------------------|----------------------------------|
----------------------------------|----------------------------------|
----------------------------------|----------------------------------|



--5~5~5~x~5~5~5~5~x~5~5~5~x~5~5~5~|---------------x----||
----------------------------------|---------------x----||
----------------------------------|--7------------x----||
----------------------------------|--0------------x----||
----------------------------------|--0------------x----||
----------------------------------|--0------------x----||




Добавлено: 04.10.2013
Другие материалы по этой песне:
  • Аккорды и текст

Страница создана 04.10.2013
http://primanota.ru/system-of-a-down/psycho-bdo-live-chords.htm
Привет, Гость.
Предлагаем пройти революционный курс по гитаре.
Подарок от PrimaNota.Ru, забирай!