PrimaNota.ru - самый крупный в мире бесплатный архив песенных текстов, аккордов, табулатур и нот


System Of A Down - Mr. Jack - аккорды и текст, таба, бас-таба, драм-таба, видео

Регистрация Запомнить меня
Войти через:  Facebook Google Twitter Vk Yandex Mail.ru

System Of A Down - Mr. Jack - аккорды и текст, таба, бас-таба, драм-таба, видео

Печатать
Просмотров: 448
Mr. Jack
System Of A Down
A(maybe this is only played by bass)
E|----------------------------|------------------------|
B|----------------------------|------------------------|
G|----------------------------|------------------------|
D|----------------------------|------------------------|
A|----8/7--7/5---5-----5-6--5-|----3--3---5-----5--6-5-|
E|-0----------------0---------|-0------------0---------|
 
A'(maybe this is only played by bass)
E|----------------------------|-------------|
B|----------------------------|-------------|
G|----------------------------|-------------|
D|----------------------------|-------------|
A|----8/7--7/5---5-----5-6--5-|----3--3---5-|
E|-0----------------0---------|-0-----------|

B
E|-3^2-2-2-2---22-2--2-22-|-5-5-5---55-5--5-55-|
B|-----3-3-3---33-3--3-33-|-6-6-6---66-6--6-66-|
G|-----2-2-2---22-2--2-22-|-5-5-5---55-5--5-55-|
D|-----0-0-0---00-0--0-00-|-0-0-0---00-0--0-00-|
A|------------------------|--------------------|
E|------------------------|--------------------|

E|-7-7-7---77-7--7-77-|-10-101010--1012-12-12-1010/-|
B|-8-8-8---88-8--8-88-|-11-111111--1111-11-11-1111/-|
G|-7-7-7---77-7--7-77-|-10-101010--1010-10-10-1010/-|
D|-0-0-0---00-0--0-00-|--0--0-0-0---0-0--0--0--0-0/-|
A|--------------------|-----------------------------|
E|--------------------|-----------------------------|

E|-2-2-2---22-2--2-22-|-5-5-5---55-5--5-55-|
B|-3-3-3---33-3--3-33-|-6-6-6---66-6--6-66-|
G|-2-2-2---22-2--2-22-|-5-5-5---55-5--5-55-|
D|-0-0-0---00-0--0-00-|-0-0-0---00-0--0-00-|
A|--------------------|--------------------|
E|--------------------|--------------------|

E|-7-7-7---77-7--7-77-|-10-101010--10-12-|
B|-8-8-8---88-8--8-88-|-11-111111--11-11-|
G|-7-7-7---77-7--7-77-|-10-101010--10-10-|
D|-0-0-0---00-0--0-00-|--0--0-0-0---0--0-|
A|--------------------|------------------|
E|--------------------|------------------|

C
E|---------------------|---------------------|
B|---------------------|---------------------|
G|---------------------|---------------------|
D|-0---7---3---8-7-8-7-|-0---7---3---8-7-8-8-|
A|-0---7---3---8-7-8-7-|-0---7---3---8-7-8-8-|
E|-0---7---3---8-7-8-7-|-0---7---3---8-7-8-8-|

D
pm..................................................
E|---------------------------|-----------------------|
B|---------------------------|-----------------------|
G|---------------------------|-----------------------|
D|-0---0-7---7-3---3-8-7-8-7-|-0---7---7-3---3-8-7-8-|
A|-0---0-7---7-3---3-8-7-8-7-|-0---7---7-3---3-8-7-8-|
E|-0---0-7---7-3---3-8-7-8-7-|-0---7---7-3---3-8-7-8-|
pm.............................................
E|-----------------------|---------------------|
B|-----------------------|---------------------|
G|-----------------------|---------------------|
D|-0---7---3---3-8-7-8-7-|-0---7---3---3-8-7-8-|
A|-0---7---3---3-8-7-8-7-|-0---7---3---3-8-7-8-|
E|-0---7---3---3-8-7-8-7-|-0---7---3---3-8-7-8-|

E
pm.........................................
E|---------------------|-------------------|
B|---------------------|-------------------|
G|---------------------|-------------------|
D|-0---7---3---8-7-8-7-|-0---7---3---8-7-8-|
A|-0---7---3---8-7-8-7-|-0---7---3---8-7-8-|
E|-0---7---3---8-7-8-7-|-0---7---3---8-7-8-|

F
pm................................
E|---------------------|---------------------|
B|---------------------|---------------------|
G|---------------------|---------------------|
D|-0---7---3---8-7-8-7-|-0---7---3---8-7-8-8-|
A|-0---7---3---8-7-8-7-|-0---7---3---8-7-8-8-|
E|-0---7---3---8-7-8-7-|-0---7---3---8-7-8-8-|

G(with chorus; between the chords a 2nd guitar
plays in the 7th fret on the 4th string)
E|----13/12--12---10---10--11-10----8--8---10--10--10-|
B|----------------------------------------------------|
G|----10/9---9----7----7---8--7-----5--5---7---7---7--|
D|----------------------------------------------------|
A|----------------------------------------------------|
E|-0--------------------------------------------------|

H(with chorus; between the chords a 2nd guitar
plays in the 7th fret on the 4th string)
E|----13/12--12---10---10--11-10----8--8---101010101010101010-|
B|------------------------------------------------------------|
G|----10/9---9----7----7---8--7-----5--5---7-7-7-7-7-7-7-7-7--|
D|------------------------------------------------------------|
A|------------------------------------------------------------|
E|-0----------------------------------------------------------|

I
7x| 1x|
E|----------------------|-----------------|
B|----------------------|-----------------|
G|----------------------|-----------------|
D|-0-0--7-7--3-3--8-7-8-|-0-0--7-7--3---8-|
A|-0-0--7-7--3-3--8-7-8-|-0-0--7-7--3---8-|
E|-0-0--7-7--3-3--8-7-8-|-0-0--7-7--3---8-|

J
pm............
E|----------------------|
B|----------------------|
G|----------------------|
D|-0-0-0-0-0-0----------|
A|-0-0-0-0-0-0----------|
E|-0-0-0-0-0-0--000-000-|

K
pm... .....
E|--------------------|
B|--------------------|
G|--------------------|
D|-0-0-0-7--7-3-3-3-8-|
A|-0-0-0-7--7-3-3-3-8-|
E|-0-0-0-7--7-3-3-3-8-|

L
E|-----------------|
B|-----------------|
G|-----------------|
D|-0---7---3-3-3-8-|
A|-0---7---3-3-3-8-|
E|-0---7---3-3-3-8-|

ORDER|
=====

A 4x

A, A, A, A' (plus B 1x)

C 4x
D
E
F
C 2x
E 3x
F
C 4x
G 5x
H
I
J 8x
K 3x
L 4x
K
Добавлено: 14.01.2014
Другие материалы по этой песне:

Страница создана 06.03.2012
http://primanota.ru/system-of-a-down/mr-jack-chords.htm
Привет, Гость.
Предлагаем пройти революционный курс по гитаре.
Подарок от PrimaNota.Ru, забирай!