PrimaNota.ru - самый крупный в мире бесплатный архив песенных текстов, аккордов, табулатур и нот


System Of A Down - Know Cor Ver - аккорды и текст, видео

Регистрация Запомнить меня
Войти через:  Facebook Google Twitter Vk Yandex Mail.ru

System Of A Down - Know Cor Ver - аккорды и текст, видео

Печатать
Просмотров: 139
Know Cor Ver
System Of A Down
Tuning C G C F A D
 
Intro:
D|-------|--------------------------------------------|
A|-------|--------------------------------------------|
F|-------|--------------------------------------------|
C|-------|--------------------------------------------|
G|---5\--|---0----8---8--8----0----0--8----8--8-------|
C|---5\--|---0----8---8--8----0----0--8----8--8-------|

D|--------------------------------------------------------------------|
A|--------------------------------------------------------------------|
F|--------------------------------------------------------------------|
C|--------------------------------------------------------------------|
G|--0----8----8--8----0-0-0-8--8------0----8---8-8---0-0--4--4-4---0--|
C|--0----8----8--8----0-0-0-8--8------0----8---8-8---0-0--4--4-4---0--|
pm ...

D|------------------------------------------------------|
A|------------------------------------------------------|
F|------------------------------------------------------|
C|------------------------------------------------------|
G|--8--8-8---0-0--4--4---0----8---8--8---0--0---4--5----|
C|--8--8-8---0-0--4--4---0----8---8--8---0--0---4--5----|

D|--10--10-----10--10--10--10----10--10-----10--10--10--10----10--10-|
A|-------------------------------------------------------------------|
F|-------------------------------------------------------------------|
C|-------------------------------------------------------------------|
G|-------------------------------------------------------------------|
C|-------------------------------------------------------------------|

D|--10--10--10--10--||----------------------------------------||
A|------------------||----------------------------------------||
F|------------------||o---------------------------------------||o
C|------------------||o---------------------------------------||o
G|------------------||----0------0------3----0--0-----0----3--||
C|------------------||----0------0------3----0--0-----0----3--||

Verse: slight palm mute throughout
D|---------------------------------------------------------------|
A|---------------------------------------------------------------|
F|---------------------------------------------------------------|
C|--0---0--0------3----0-------0-----3---0----0----3----0---0--3-|
G|---------------------------------------------------------------|
C|---------------------------------------------------------------|

D|---------------------------------------------------------------|
A|---------------------------------------------------------------|
F|---------------------------------------------------------------|
C|--0------0-----3-----0------0-----3----0----0---3---0---0---3--|
G|---------------------------------------------------------------|
C|---------------------------------------------------------------|

D|---------------------------------------------------------------|
A|---------------------------------------------------------------|
F|---------------------------------------------------------------|
C|--0--0----0--0--0--3---0-0--0---0--0--0--3---0--0---0--0--0--3-|
G|---------------------------------------------------------------|
C|---------------------------------------------------------------|

D|---------------------------------------------------------------|
A|---------------------------------------------------------------|
F|---------------------------------------------------------------|
C|--0--0----0--0--0--3---0-0--0---0--0--0--3---0--0------0/12/---|
G|---------------------------------------------------------------|
C|---------------------------------------------------------------|

Chorus:
D|---------------------------------------------------------------|
A|---------------------------------------------------------------|
F|--2----2--4---5----5--5---5--5---2----4--5---------------------|
C|--0----0--2---3----3--3---3--3---0----2--3--x--x----x----x--x--|
G|--0----0--2---3----3--3---3--3---0----2--3--x--x----x----x--x--|
C|--0----0--2---3----3--3---3--3---0----2--3--x--x----x----x--x--|

D|---------------------------------------------------------------|
A|---------------------------------------------------------------|
F|--2----4--5----5--5---5----5----2---4--5-----------------------|
C|--0----2--3----3--3---3----3----0---2--3--x--x----x----x--x----|
G|--0----2--3----3--3---3----3----0---2--3--x--x----x----x--x----|
C|--0----2--3----3--3---3----3----0---2--3--x--x----x----x--x----|

D|---------------------------------------------------|
A|---------------------------------------------------|
F|--2----4---5-----5--5---5---5---2---2--4---5-------|
C|--0----2---3-----3--3---3---3---0---0--2---3-------|
G|--0----2---3-----3--3---3---3---0---0--2---3-------|
C|--0----2---3-----3--3---3---3---0---0--2---3-------|

D|---------------------------------------------------------------|
A|---------------------------------------------------------------|
F|--2----2--4---5----5--5---5--5---2----4---5--------------------|
C|--0----0--2---3----3--3---3--3---0----2---3--x--x----x----x--x-|
G|--0----0--2---3----3--3---3--3---0----2---3--x--x----x----x--x-|
C|--0----0--2---3----3--3---3--3---0----2---3--x--x----x----x--x-|

D|-------------------------------------------||
A|-------------------------------------------||
F|-------------------------------------------||o repeat
C|--0--0-----0--0---3---0--0----0--0---3-----||o
G|--0--0-----0--0---3---0--0----0--0---3-----||
C|--0--0-----0--0---3---0--0----0--0---3-----||

D|----------------------------------------------------------------|
A|----------------------------------------------------------------|
F|--2-----4---5---------------------------------------------------|
C|--0-----2---3--x--x----x----x--x--------------------------------|
G|--0-----2---3--x--x----x----x--x--------------------------------|
C|--0-----2---3--x--x----x----x--x---x--x---x---x-x--x-x---x--x-x-|

D|----------|----------------------------------------||
A|----------|----------------------------------------||
F|----------|----------------------------------------||o
C|----------|--0-0-----0----0-0---0-0----0-----0-0---||o
G|----------|--0-0-----0----0-0---0-0----0-----0-0---||
C|--x---x-x-|--0-0-----0----0-0---0-0----0-----0-0---||

Interlude:
D|----------------0----------5----------2-----------5----|
A|----------------6----------6----------3-----------6----|
F|----------------5----------5----------2-----------5----|
C|-------------------------------------------------------|
G|-------------------------------------------------------|
C|--0-------------3---------(3)---------0-----------3----|

D|--5-------------2----------5----------5-----------2----|
A|--6-------------3----------6----------6-----------3----|
F|--5-------------2----------5----------5-----------2----|
C|-------------------------------------------------------|
G|-------------------------------------------------------|
C|--3----------------------------------------------------|

D|--(2)-----------5----------5-----------------|
A|--(3)-----------6----------6-----------------|
F|--(2)-----------5----------5-----------------|
C|---------------------------------------------|
G|---------------------------------------------|
C|---------------------------3----------12\----|

D|---------------------------------------------------------------------|
A|---------------------------------------------------------------------|
F|---------------------------------------------------------------------|
C|--0--0---0---0-0----0--0---0---3--3--3--3-3--3--3---3---3--3--3--3-3-|
G|---------------------------------------------------------------------|
C|---------------------------------------------------------------------|
pm.....................................................................

D|---------------------------------------------------------------------|
A|---------------------------------------------------------------------|
F|---------------------------------------------------------------------|
C|--0---0----0-0-0-0---0--0---0-0-0-----0---0----0-0-0-0---0--0---0----|
G|---------------------------------------------------------------------|
C|---------------------------------------------------------------------|
pm.....................................................................

D|----------------------------------------------------------------------|
A|----------------------------------------------------------------------|
F|----------------------------------------------------------------------|
C|--3----3----3----3--3-----3----3-----3-----3----3---3----3---3---3--3-|
G|----------------------------------------------------------------------|
C|----------------------------------------------------------------------|
pm......................................................................

D|-----------------------------------------------------------------|
A|-----------------------------------------------------------------|
F|-----------------------------------------------------------------|
C|--0---0---0-----0--0-----0---0-----0---0----0--0---0----0---0----|
G|--0---0---0-----0--0-----0---0-----0---0----0--0---0----0---0----|
C|--0---0---0-----0--0-----0---0-----0---0----0--0---0----0---0----|

D|-----------------------------------------------------------------|
A|-----------------------------------------------------------------|
F|-----------------------------------------------------------------|
C|--3---3---3-----3--3-----3---3-----3---3----3--3---3----3---3----|
G|--3---3---3-----3--3-----3---3-----3---3----3--3---3----3---3----|
C|--3---3---3-----3--3-----3---3-----3---3----3--3---3----3---3----|
Добавлено: 24.10.2013
Другие материалы по этой песне:
  • Аккорды и текст

Страница создана 24.10.2013
http://primanota.ru/system-of-a-down/know-cor-ver-chords.htm
Привет, Гость.
Предлагаем пройти революционный курс по гитаре.
Подарок от PrimaNota.Ru, забирай!