PrimaNota.ru - самый крупный в мире бесплатный архив песенных текстов, аккордов, табулатур и нот


System Of A Down - Hypnotize1 - таба, видео

Регистрация Запомнить меня
Войти через:  Facebook Google Twitter Vk Yandex Mail.ru

System Of A Down - Hypnotize1 - таба, видео

Печатать
Просмотров: 144


system of a down - hypnotized                 tabbed by : justin burns
drop d tunning

G|-12-12-12-12-12-12-12-12-|
D|-------------------------|
A|-------------------------|
D|-------------------------|

G|-0-0-0-0-0-0-0-0-|
D|-----------------|
A|-----------------|
D|-----------------|

Verse
G|----------------------|
D|----------------------|
A|----------------6-6-6-|
D|-5---5--5-5--5--------|

Pre chorus
G|----------------------|
D|----------------------|
A|----------------6-6-6-|
D|-5---5--5-5--5--------|

Chorus
G|---------------------------------------------|
D|---------------------------------------------|
A|---------6-6-6-6-6-6-6-6-8-8-8-8-------------|
D|-5-5-5-5-------------------------8--8--0--0--|

Bridge
G|------------------------------------------------
D|------------------------------------------------
A|------------------------------------------------
D|-3-0-1-3-0-1-3-0-1-3-0-1-3-0-1-3-0-1-3-0-1-3-0-

Chorus
G|------------------------------------------------
D|------------------------------------------------
A|---------6-6-6-6-6-6-6-6-6-6-6-6-8-8-8-8-8-8-8-8
D|-5-5-5-5----------------------------------------

Bridge
G|------------------------------------------------
D|------------------------------------------------
A|------------------------------------------------
D|-3-0-1-3-0-1-3-0-1-3-0-1-3-0-1-3-0-1-3-0-1-3-0--

Last Chorus
G|------------------------------------------------
D|------------------------------------------------
A|-------------6-6-6-6-6---6-6-6-6-6---8-8-8-8-8--
D|-5-5-5-5-5--------------------------------------


just figure out the rythm ...wont take no time i just wanted to do it plan
and simple cause i have stuff to do ... good luck    if there any mess ups
just fix them for me thanx   

Добавлено: 17.11.2013
Другие материалы по этой песне:
  • Аккорды и текст

Страница создана 17.11.2013
http://primanota.ru/system-of-a-down/hypnotize1-chords.htm
Привет, Гость.
Предлагаем пройти революционный курс по гитаре.
Подарок от PrimaNota.Ru, забирай!