PrimaNota.ru - самый крупный в мире бесплатный архив песенных текстов, аккордов, табулатур и нот


System Of A Down - Friik - текст песни, таба, видео

Регистрация Запомнить меня
Войти через:  Facebook Google Twitter Vk Yandex Mail.ru

System Of A Down - Friik - текст песни, таба, видео

Печатать
Просмотров: 290
    Hey everybody, this is my second tab and I'm feeling a bit more experienced so I
I'll try something a little more difficult. This is probably my favorite song from system
a down. You wont find this song on any album. This is one of soads many unreleased 
If you want to hear it you can either go start a free account on www.soadfans.com (which
a great web site, by the way) and go to the download section. Or if you want the quicker 
heres a  link to a video I found that some guy put the song to on a public, virus free site.

http://www.youtube.com/watch?v=ieBMVbIUk8U

 Plz rate and tell me what you think.

Song: Friik
Artist: System of a Down
Tuning: Drop C

--Legend--
/= slide up
\= slide down
h= hammer on
p= pull off
~= let note ring
--Legend--

Intro
D]----------------------15--------------------------------------------]
A]---------15--------16----16-------15----------15--------------------]
F]------16----16--17-------------16----16----16----16-----------------]
C]---17-----------------------17----------17--------------------------]
G]--------------------------------------------------------------------]
C]--------------------------------------------------------------------]

Verse One
D]---------------------------------]
A]---------------------------------]
F]-1p0h1p0h1p0h1p0h1p0h1p0h1p0h1p0-] Play about four times, or until
C]---------------------------------] the line "To emotional to be you!"
G]---------------------------------]
C]---------------------------------]

D]-----------------------------------]
A]-----------------------------------]
F]-----------------------------------]
C]--5-6-5-6-5-6-5-6-5-6-5-6-5-6-5-6--]
G]--5-6-5-6-5-6-5-6-5-6-5-6-5-6-5-6--]
C]--5-6-5-6-5-6-5-6-5-6-5-6-5-6-5-6--]

D]-----------------------------]
A]-----------------------------]
F]-----------------------------]  Play Twice
C]--5-----6-----8-----6--8--6--]
G]-----4-----4-----4-----------]
C]-----------------------------]

D]-----------------------------------]
A]-----------------------------------]
F]-----------------------------------]
C]--5-6-5-6-5-6-5-6-5-6-5-6-5-6-5-6--]
G]--5-6-5-6-5-6-5-6-5-6-5-6-5-6-5-6--]
C]--5-6-5-6-5-6-5-6-5-6-5-6-5-6-5-6--]

D]-----------------------------]
A]-----------------------------]
F]-----------------------------]  Play Twice
C]--5-----6-----8-----6--8--6--]
G]-----4-----4-----4-----------]
C]-----------------------------]

D]-----------------------------------]
A]-----------------------------------]
F]-----------------------------------]
C]--5-6-5-6-5-6-5-6-5-6-5-6-5-6-5-6--]
G]--5-6-5-6-5-6-5-6-5-6-5-6-5-6-5-6--]
C]--5-6-5-6-5-6-5-6-5-6-5-6-5-6-5-6--]

D]-----------------------------]
A]-----------------------------]
F]-----------------------------]  Play Twice
C]--5-----6-----8-----6--8--6--]
G]-----4-----4-----4-----------]
C]-----------------------------]

D]-----------------------------------]
A]-----------------------------------]
F]-----------------------------------]
C]--5-6-5-6-5-6-5-6-5-6-5-6-5-6-5-6--]
G]--5-6-5-6-5-6-5-6-5-6-5-6-5-6-5-6--]
C]--5-6-5-6-5-6-5-6-5-6-5-6-5-6-5-6--]

Interlude/Bridge/Whatever
D]--------------------17-------------------]
A]--------17-------16----16--------17------]
F]-----16----16-15--------------16----16---]
C]--15-----------------------15------------]
G]-----------------------------------------]
C]-----------------------------------------]

Chorus
D]----------------------]
A]----------------------]
F]----------------------] Play four times
C]--5--6--5~--5--6--5~--]
G]--5--6--5~--5--6--5~--]
C]--5--6--5~--5--6--5~--]

D]------------------------------------------]
A]------------------------------------------]
F]------------------------------------------]
C]-3--3-3-3-3-3-3-3-3---1--1-1-1-1-1-1-1-1--]
G]-3--3-3-3-3-3-3-3-3---1--1-1-1-1-1-1-1-1--]
C]-3--3-3-3-3-3-3-3-3---1--1-1-1-1-1-1-1-1--]

Bass Interlude

D]-----------------------------------]
A]-----------------------------------]
F]-----------------------------------]
C]--5-6-5-6-5-6-5-6-5-6-5-6-5-6-5-6--]
G]--5-6-5-6-5-6-5-6-5-6-5-6-5-6-5-6--]
C]--5-6-5-6-5-6-5-6-5-6-5-6-5-6-5-6--]

D]-----------------------------]
A]-----------------------------]
F]-----------------------------]  Play Twice
C]--5-----6-----8-----6--8--6--]
G]-----4-----4-----4-----------]
C]-----------------------------]

D]-----------------------------------]
A]-----------------------------------]
F]-----------------------------------]
C]--5-6-5-6-5-6-5-6-5-6-5-6-5-6-5-6--]
G]--5-6-5-6-5-6-5-6-5-6-5-6-5-6-5-6--]
C]--5-6-5-6-5-6-5-6-5-6-5-6-5-6-5-6--]

D]-----------------------------]
A]-----------------------------]
F]-----------------------------]  Play Twice
C]--5-----6-----8-----6--8--6--]
G]-----4-----4-----4-----------]
C]-----------------------------]

D]-----------------------------------]
A]-----------------------------------]
F]-----------------------------------]
C]--5-6-5-6-5-6-5-6-5-6-5-6-5-6-5-6--]
G]--5-6-5-6-5-6-5-6-5-6-5-6-5-6-5-6--]
C]--5-6-5-6-5-6-5-6-5-6-5-6-5-6-5-6--]

D]-----------------------------]
A]-----------------------------]
F]-----------------------------]  Play Twice
C]--5-----6-----8-----6--8--6--]
G]-----4-----4-----4-----------]
C]-----------------------------]

D]-----------------------------------]
A]-----------------------------------]
F]-----------------------------------]
C]--5-6-5-6-5-6-5-6-5-6-5-6-5-6-5-6--]
G]--5-6-5-6-5-6-5-6-5-6-5-6-5-6-5-6--]
C]--5-6-5-6-5-6-5-6-5-6-5-6-5-6-5-6--]

Interlude/Bridge/Whatever
D]--------------------17-------------------]
A]--------17-------16----16--------17------]
F]-----16----16-15--------------16----16---]
C]--15-----------------------15------------]
G]-----------------------------------------]
C]-----------------------------------------]

Chorus
D]----------------------]
A]----------------------]
F]----------------------] Play four times
C]--5--6--5~--5--6--5~--]
G]--5--6--5~--5--6--5~--]
C]--5--6--5~--5--6--5~--]

D]------------------------------------------]
A]------------------------------------------]
F]------------------------------------------]
C]-3--3-3-3-3-3-3-3-3---1--1-1-1-1-1-1-1-1--]
G]-3--3-3-3-3-3-3-3-3---1--1-1-1-1-1-1-1-1--]
C]-3--3-3-3-3-3-3-3-3---1--1-1-1-1-1-1-1-1--]

D]------------------------]
A]------------------------]
F]----------5----------5--] Play four times
C]--5--6--5~---5--6--5~---]
G]--5--6--5~---5--6--5~---]
C]--5--6--5~---5--6--5~---]

D]------------------------------------------]
A]------------------------------------------]
F]------------------------------------------]
C]-3--3-3-3-3-3-3-3-3---1--1-1-1-1-1-1-1-1--]
G]-3--3-3-3-3-3-3-3-3---1--1-1-1-1-1-1-1-1--]
C]-3--3-3-3-3-3-3-3-3---1--1-1-1-1-1-1-1-1--]

Bass Interlude

D]-----------------------------------]
A]-----------------------------------]
F]-----------------------------------] Play 16 times
C]--5-6-5-6-5-6-5-6-5-6-5-6-5-6-5-6--]
G]--5-6-5-6-5-6-5-6-5-6-5-6-5-6-5-6--]
C]--5-6-5-6-5-6-5-6-5-6-5-6-5-6-5-6--]

D]-------------------]
A]-------------------]
F]-------------------] Play three times between bass interludes
C]--5-6-5-6-5-6-5-6--]
G]--5-6-5-6-5-6-5-6--]
C]--5-6-5-6-5-6-5-6--]

D]--------------------]
A]--------------------]
F]--------------------] Play Twice
C]--5--6--5--5--6--5--]
G]--5--6--5--5--6--5--]
C]--5--6--5--5--6--5--]

D]----------------------]
A]----------------------]
F]----------------------] Play four times
C]--5--6--5~--5--6--5~--]
G]--5--6--5~--5--6--5~--]
C]--5--6--5~--5--6--5~--]

D]------------------------]
A]------------------------]
F]----------5----------5--] Play four times
C]--5--6--5~---5--6--5~---]
G]--5--6--5~---5--6--5~---]
C]--5--6--5~---5--6--5~---]

D]------------------------------------------]
A]------------------------------------------]
F]------------------------------------------] Play three times
C]-3--3-3-3-3-3-3-3-3---1--1-1-1-1-1-1-1-1--]
G]-3--3-3-3-3-3-3-3-3---1--1-1-1-1-1-1-1-1--]
C]-3--3-3-3-3-3-3-3-3---1--1-1-1-1-1-1-1-1--]

    Wow, that took longer than I thought it would. Sorry bout the length. Now that I've
threw all the trouble to do this, wont you plz rate it lol? Anyway, I hope this helps
continue rocking!
Добавлено: 19.06.2012
Другие материалы по этой песне:

Страница создана 20.03.2012
http://primanota.ru/system-of-a-down/friik-chords.htm
Привет, Гость.
Предлагаем пройти революционный курс по гитаре.
Подарок от PrimaNota.Ru, забирай!