PrimaNota.ru - самый крупный в мире бесплатный архив песенных текстов, аккордов, табулатур и нот


System Of A Down - Deer Dance - аккорды и текст, таба, бас-таба, драм-таба, видео

Регистрация Запомнить меня
Войти через:  Facebook Google Twitter Vk Yandex Mail.ru

System Of A Down - Deer Dance - аккорды и текст, таба, бас-таба, драм-таба, видео

Печатать
Просмотров: 691
Авторы музыки: Daron Malakian
Авторы текста: Daron Malakian, Serj Tankian
Deer Dance
System Of A Down
INTRO (palm mute)
|------------------------------|
|------------------------------|
|------------------------------|
|------------------------------|
|-110-110-110-1--110-110-110-1-|
|-110-110-110-1--110-110-110-1-|
PM... ... ... ... ... ...
 
|------------------------------|
|------------------------------|
|------------------------------|
|------------------------------|
|-110-110-110-1--110-110-110-1-|
|-110-110-110-1--110-110-110-1-|
PM... ... ... ... ... ...

MAIN RIFF
|--------------------------------------------------------------|
|--------------------------------------------------------------|
|--------------------------------------------------------------|
|-1-0-1-0-1-0-1-0-1-0-1-0-1-0-1-0-1-0-1-0-1-0-1--1-0-1-0-1-0-1-|
|-1-0-1-0-1-0-1-0-1-0-1-0-1-0-1-0-1-0-1-0-1-0-1--1-0-1-0-1-0-1-|
|-1-0-1-0-1-0-1-0-1-0-1-0-1-0-1-0-1-0-1-0-1-0-1--1-0-1-0-1-0-1-|
PM. . . . . . . . . . . . . . . . . . . . . . . . . . . .

VERSE
|------------------------------------------|
|------------------------------------------|
|------------------------------------|
|------------------------------------------|
|------------------------------------------|
|-5/8—-3/7--1/5--------5/8—-3/7--1/5-------|

|------------------------------------------|
|------------------------------------------|
|------------------------------------|
|------------------------------------------|
|------------------------------------------|
|-5/8—-3/7--1/5--------5/8—-3/7--1/5-------|

VERSE
|--------------------------------------------------------------|
|--------------------------------------------------------------|
|-----------------------------------------------------------|
|--------------------------------------------------------------|
|--------------------------------------------------------------|
|-55558888333377771111555500000000-555588883333777711115555----|
PM................................ ........................

|--------------------------------------------------------------|
|--------------------------------------------------------------|
|-----------------------------------------------------------|
|--------------------------------------------------------------|
|--------------------------------------------------------------|
|-55558888333377771111555500000000-555588883333777711115555----|
PM................................ ........................

|------------------------------|
|------------------------------|
|------------------------------|
|------------------------------|
|-110-110-110-1--110-110-110-1-|
|-110-110-110-1--110-110-110-1-|
PM... ... ... ... ... ...

|------------------------------|
|------------------------------|
|------------------------------|
|------------------------------|
|-110-110-110-1--110-110-110-1-|
|-110-110-110-1--110-110-110-1-|
PM... ... ... ... ... ...

|--------------------------------------------------------------|
|--------------------------------------------------------------|
|--------------------------------------------------------------|
|-1-0-1-0-1-0-1-0-1-0-1-0-1-0-1-0-1-0-1-0-1-0-1--1-0-1-0-1-0-1-|
|-1-0-1-0-1-0-1-0-1-0-1-0-1-0-1-0-1-0-1-0-1-0-1--1-0-1-0-1-0-1-|
|-1-0-1-0-1-0-1-0-1-0-1-0-1-0-1-0-1-0-1-0-1-0-1--1-0-1-0-1-0-1-|
PM. . . . . . . . . . . . . . . . . . . . . . . . . . . .

|------------------------------------------|
|------------------------------------------|
|------------------------------------|
|------------------------------------------|
|------------------------------------------|
|-5/8—-3/7--1/5--------5/8—-3/7--1/5-------|

|------------------------------------------|
|------------------------------------------|
|------------------------------------|
|------------------------------------------|
|------------------------------------------|
|-5/8—-3/7--1/5--------5/8—-3/7--1/5-------|

INTERLUDE
|----------------------|
|-10-9------13-10-9----|
|------9------------9--|
|--------12------------|
|----------------------|
|----------------------|

|--------------------------------------------------------------|
|--------------------------------------------------------------|
|-----------------------------------------------------------|
|--------------------------------------------------------------|
|--------------------------------------------------------------|
|-55558888333377771111555500000000-555588883333777711115555----|
PM................................ ........................

|--------------------------------------------------------------|
|--------------------------------------------------------------|
|-----------------------------------------------------------|
|--------------------------------------------------------------|
|--------------------------------------------------------------|
|-55558888333377771111555500000000-555588883333777711115555----|
PM................................ ........................

INTERLUDE
|---------------------------------------------------------------------|
|-----------10-9------13-10-9-/11-11-11-11-11/13-13-13-13-13/15-15-15-|
|-15-14-12-------9----------------------------------------------------|
|------------------12-------------------------------------------------|
|---------------------------------------------------------------------|
|---------------------------------------------------------------------|

|-------------------|
|-16-15-13----------|
|----------14-15-14-|
|-------------------|
|-------------------|
|-------------------|

INTERLUDE FILL
|-------------|
|-------------|
|-15-14-15-14-|
|-------------|
|-------------|
|-------------|

INTERLUDE
|-------------------------|
|-------------------------|
|-15-15-15-14-14-14-14-14-|
|-------------------------|
|-------------------------|
|-------------------------|
|------------------------------|
|------------------------------|
|------------------------------|
|------------------------------|
|-110-110-110-1--110-110-110-1-|
|-110-110-110-1--110-110-110-1-|
PM... ... ... ... ... ...

|------------------------------|
|------------------------------|
|------------------------------|
|------------------------------|
|-110-110-110-1--110-110-110-1-|
|-110-110-110-1--110-110-110-1-|
PM... ... ... ... ... ...

|--------------------------------------------------------------|
|--------------------------------------------------------------|
|--------------------------------------------------------------|
|-1-0-1-0-1-0-1-0-1-0-1-0-1-0-1-0-1-0-1-0-1-0-1--1-0-1-0-1-0-1-|
|-1-0-1-0-1-0-1-0-1-0-1-0-1-0-1-0-1-0-1-0-1-0-1--1-0-1-0-1-0-1-|
|-1-0-1-0-1-0-1-0-1-0-1-0-1-0-1-0-1-0-1-0-1-0-1--1-0-1-0-1-0-1-|
PM. . . . . . . . . . . . . . . . . . . . . . . . . . . .

OUTRO
|--------------------------------------------------------------|
|--------------------------------------------------------------|
|--------------------------------------------------------------|
|-1-0-1-0-1-0-1-0-1-0-1-0-1-0-1--1-0-1-0-1-0-1-0-1-0-1-0-1-0-1-|
|-1-0-1-0-1-0-1-0-1-0-1-0-1-0-1--1-0-1-0-1-0-1-0-1-0-1-0-1-0-1-|
|-1-0-1-0-1-0-1-0-1-0-1-0-1-0-1--1-0-1-0-1-0-1-0-1-0-1-0-1-0-1-|
PM. . . . . . . . . . . . . . . . . . . . . . . . . . . .

|--------------------------------------------------------------|
|--------------------------------------------------------------|
|--------------------------------------------------------------|
|-1-0-1-0-1-0-1-0-1-0-1-0-1-0-1--1-0-1-0-1-0-1-0-1-0-1-0-1-0-1-|
|-1-0-1-0-1-0-1-0-1-0-1-0-1-0-1--1-0-1-0-1-0-1-0-1-0-1-0-1-0-1-|
|-1-0-1-0-1-0-1-0-1-0-1-0-1-0-1--1-0-1-0-1-0-1-0-1-0-1-0-1-0-1-|
PM. . . . . . . . . . . . . . . . . . . . . . . . . . . .
Добавлено: 17.09.2013
Другие материалы по этой песне:

Страница создана 21.02.2012
http://primanota.ru/system-of-a-down/deer-dance-chords.htm
Привет, Гость.
Предлагаем пройти революционный курс по гитаре.
Подарок от PrimaNota.Ru, забирай!