PrimaNota.ru - самый крупный в мире бесплатный архив песенных текстов, аккордов, табулатур и нот


System Of A Down - Bounce live - бас-таба, видео

Регистрация Запомнить меня
Войти через:  Facebook Google Twitter Vk Yandex Mail.ru

System Of A Down - Bounce live - бас-таба, видео

Печатать
Просмотров: 164


tabbeD BY:MIKKO pUHAKka



Part 1

F------------------------------------
C------------------------------------
G------------------------------------
C-8---7-7-8-8-7-7-8-8-7-7-8-8-0------

Part 2
F-------------------------------------------------
C---7-8---7-8---7-8---7-8---6-7---6-7---6-7---6-7-
G-5-----5-----5-----5-----4-----4-----4-----4-----C-------------------------------------------------

Part 3
F---------------------------------------------------------
C---9-10----9-10---9-10---9-10---9-8---9-8---9-8---9-8----
G-7-------7------7------7------6-----6-----6-----6--------
C---------------------------------------------------------

Part 4
F--------------------------------------
C--------------------------------------
G--------------------------------------
C-8-8-0----8-8-0---8-8-0---8-8-0-------

oRder
PArt 1      5x
PaRt 2     2x
ParT 1      4x 
PaRT 3    2x
paRT I      4x  
BraKE-------
PArT 4     4x
BRAKE-------    
PaRT 3    2x
P/rtT I      4x


Добавлено: 18.10.2013
Другие материалы по этой песне:
  • Аккорды и текст

Страница создана 18.10.2013
http://primanota.ru/system-of-a-down/bounce-live-chords.htm
Привет, Гость.
Предлагаем пройти революционный курс по гитаре.
Подарок от PrimaNota.Ru, забирай!