PrimaNota.ru - самый крупный в мире бесплатный архив песенных текстов, аккордов, табулатур и нот


System Of A Down - Bounce - аккорды и текст, таба, бас-таба, драм-таба, видео

Регистрация Запомнить меня
Войти через:  Facebook Google Twitter Vk Yandex Mail.ru

System Of A Down - Bounce - аккорды и текст, таба, бас-таба, драм-таба, видео

Печатать
Просмотров: 582
Авторы музыки: Daron Malakian, Shavo Odadjian
Авторы текста: Serj Tankian
Bounce
System Of A Down
Для правильной игры настройте гитару таким образом: состройте 6-ю струну с 4-ой(6-ю надо 
опустить), а затем все струны опустите на полный шаг(опускать на полный шаг не 
обязательно).
Riff 1:
(Distortion guitar)
D5--------------------|
A--------------------|
F--------------------| 7x
C|-8-----------------------------|
G|-8-----------------------------|
C|-8--7-7-8-8-7-7-8-8-7-7-8-8-0-0|

Jump! 
Bounce!
Down! 
Up!

(Muted guitar)
D5--------------------------------------------|
A--------------------------------------------|
F--------------------------------------------|
C|---7-8----7-8----7-8----7-8----6-7----6-7----6-7----6-7| 2x
G|-5------5------5------5------4------4------4------4----|
C--------------------------------------------|

I went out on a date,
With a girl, a bit late,
She had so many friends,
Gliding through many hands.
I brought my pogo stick,
Just to show her a trick,
She had so many friends,
Gliding through many hands.

Riff 1.

Jump! Pogo pogo pogo pogo pogo pogo pogo?..
Bounce! Pogo pogo pogo pogo pogo pogo pogo
Down! Pogo pogo pogo , 
Up! Pogo pogo pogo
Jump! pogo bounce pogo down pogo up pogo

(Muted guitar)
D5------------------------------------------------|
A------------------------------------------------|
F------------------------------------------------|
C|---9-10----9-10----9-10----9-10----9-8----9-8----9-8----9-8| 2x
G|-7-------7-------7-------7-------6------6------6------6----|
C------------------------------------------------|

Unannounced twister games,
All players with no names,
They lined up double quick,
But just one pogo stick,
Everyone gets to play,
Runaway, expose',
It was so exotic,
But just one pogo stick.


Riff 1.

Jump! Pogo pogo pogo pogo pogo pogo pogo?..
Bounce! Pogo pogo pogo pogo pogo pogo pogo
Down! Pogo pogo pogo , 
Up! Pogo pogo pogo
Jump! pogo bounce pogo down pogo up pogo

Riff 2:

D5--------------------------------|
A--------------------------------|
F|---10----10----10----10----9----9----9----9| 2x
C|-8-----8-----8-----8-----8----8----8----8--|
G--------------------------------|
C--------------------------------|

D5--------------------|
A--------------------|
F--------------------| 4x
C--------------------|
G|-8-8-10--8-8-10--8-8-10--8-8-10|
C|-8-8-10--8-8-10--8-8-10--8-8-10|

D5------------------------------------------------|
A|-x-x-----x-x-----x-x-----x-x-----x-x----x-x----x-x----x-x--|
F|-x-x-10--x-x-10--x-x-10--x-x-10--x-x-9--x-x-9--x-x-9--x-x-9| 2x
C|-x-x-8---x-x-8---x-x-8---x-x-8---x-x-8--x-x-8--x-x-8--x-x-8|
G------------------------------------------------|
C------------------------------------------------|



Oh, I like to spread you out,
Touching whoever's behind


Riff 1.

Jump! Pogo pogo pogo pogo pogo pogo pogo?..
Bounce! Pogo pogo pogo pogo pogo pogo pogo
Down! Pogo pogo pogo , 
Up! Pogo pogo pogo
Jump! pogo bounce pogo down pogo up pogo
Добавлено: 21.05.2012
Другие материалы по этой песне:

Страница создана 21.02.2012
http://primanota.ru/system-of-a-down/bounce-chords.htm
Привет, Гость.
Предлагаем пройти революционный курс по гитаре.
Подарок от PrimaNota.Ru, забирай!