PrimaNota.ru - самый крупный в мире бесплатный архив песенных текстов, аккордов, табулатур и нот


System Of A Down - American dream denial - таба, видео

Регистрация Запомнить меня
Войти через:  Facebook Google Twitter Vk Yandex Mail.ru

System Of A Down - American dream denial - таба, видео

Печатать
Просмотров: 137


From: LitMatches2112
email: austinalvin@hotmail.com
Artist: SOAD
Album: Steal This Album 

Bend: ^
Harmonic: *

Tuning: CGCFAD

I Think anyone who reads this can figure out the song structure for themselves.
Coments, Kudos, Corrections, and F-yous, are appreciated.

Intro And Pre Chorus:

D------------------------------------------------
A-15-15-15-15-15-15-15-15-15^-15-15-15-15-15-----
F------------------------------------------------
C------------------------------------------------
G------------------------------------------------
C------------------------------------------------


D------------------------------------------------
A------------------------------------------------
F-7*-----------7*--------------------------------
C-7*-----------7*---------------------111--------
G-5------------5*------------3-5-6-5--111--------
C---0-0-0-0-0-0-0-0-0-0-0-0-----------111--------

Chorus:

D------------------------------------------------
A------------------------------------------------
F------------------------------------------------
C-1-1-1-1-11/7-7-7-7-7-77-0-0-0-0-0-0-6-6-6-6-6-6
G-1-1-1-1-11/7-7-7-7-7-77-0-0-0-0-0-0-6-6-6-6-6-6
C-1-1-1-1-11/7-7-7-7-7-77-0-0-0-0-0-0-6-6-6-6-6-6

D------------------------------------------------
A------------------------------------------------
F------------------------------------------------
C-11-11-11-11-11-115-5-5-5-55-------------------
G-11-11-11-11-11-115-5-5-5-55-------------------
C-11-11-11-11-11-115-5-5-5-55-------------------

Verse 1+2:

D------------------------------------------------
A------------------------------------------------
F-10---9----12----10----14----12----15----14-----
C-x----x----x-----x-----x-----x-----x-----x------
G-8----7----10----8-----12----10----13----12-----
C------------------------------------------------

Fill:

D------------------------------------------------
A------------------------------------------------
F-----7----7-------------------------------------
C--7-----7---------------------------------------
G------------------------------------------------
C------------------------------------------------







Добавлено: 25.02.2014
Другие материалы по этой песне:
  • Аккорды и текст

Страница создана 25.02.2014
http://primanota.ru/system-of-a-down/american-dream-denial-chords.htm
Привет, Гость.
Предлагаем пройти революционный курс по гитаре.
Подарок от PrimaNota.Ru, забирай!