PrimaNota.ru - самый крупный в мире бесплатный архив песенных текстов, аккордов, табулатур и нот


Synkornize - Not Get Along Well - аккорды и текст, видео

Регистрация Запомнить меня
Войти через:  Facebook Google Twitter Vk Yandex Mail.ru

Synkornize - Not Get Along Well - аккорды и текст, видео

Печатать
Просмотров: 69
Not Get Along Well
Synkornize
Tab by Bobby Battista (My first tab.  Done by ear.  Enjoy.)
Chords used in the intro and verse:

    D7M    C#m7    E7   Aadd9  Dmaj9    Bm7   Esus4  E  Amaj9
E|----5--  --4--  --0--  --0--  -----  -----  ------------0----|
B|----7--  --5--  --0--  --0--  --5--  --3--  ------------0----|
G|----6--  --4--  --7--  --6--  --6--  --2--  --2----1----1----|
D|----7--  --6--  --6--  --7--  --7--  --4--  --2----2----2----|
A|----5--  --4--  --7--  --7--  --5--  --2--  --2----2----0----|
E|-------  -----  --0--  --5--  -----  -----  --0----0---------|


Chords used in the chorus:

    Dadd9  C#m7  F#?   Bm7    E7     Aadd9
E|-------  -----  --0--  -----  -----  --0----|
B|----5--  --5--  --0--  --3--  -----  --0----|
G|----7--  --4--  --3--  --2--  --7--  --6----|
D|----7--  --6--  --4--  --4--  --6--  --7----|
A|----5--  --4--  --4--  --2--  --7--  --7----|
E|-------  -----  --2--  -----  -----  --5----|

(Verse)
Aadd9                    Dmaj9
One day,I woke up just to realize.
                      Bm7
That there is no more sunshine
Esus4        E       Amaj9
And no more love in the sky...

Tried and tried to let go of what was mine,
Love that I thought was so fine.
Keeps holding my heart,won't let go...

(Chorus)
    Dadd9                 C#m7        F#?
One kiss for goodbye. One touch for the last time.
     Bm7              E7         Aadd9
Just one more chance to be in your life...
So deep,our love lies. Bring tears to my eyes,
To realize we're not meant for each other..

(Verse)
You walk right in to reality.
While my heart's still wild and free.
Dreaming of love that's not mine..
And now, we both choose our own lives.
Following our own Moonlight.
My heart still denies to let go.

Repeat chorus a few times, end the song whenever you like :-)
Добавлено: 03.05.2012
Другие материалы по этой песне:
  • Аккорды и текст

Страница создана 03.05.2012
http://primanota.ru/synkornize/not-get-along-well-chords.htm
Привет, Гость.
Предлагаем пройти революционный курс по гитаре.
Подарок от PrimaNota.Ru, забирай!