PrimaNota.ru - самый крупный в мире бесплатный архив песенных текстов, аккордов, табулатур и нот


Syndicate Of Sound - Rumors - аккорды и текст, видео

Регистрация Запомнить меня
Войти через:  Facebook Google Twitter Vk Yandex Mail.ru

Syndicate Of Sound - Rumors - аккорды и текст, видео

Печатать
Просмотров: 101
Уроки эстрадного вокала в Санкт-Петербурге
Rumors
Syndicate Of Sound
Originaly cut for SOS's only non-compilation LP, "Little Girl", on a $1,500 
production
budget. It was released soon afterwards as the follow-up single to "Little 
Girl". The
song never made it to the Top 40, as all of their singles to follow would.

                                    "Rumors"
                                 (John Sharkey)
                               Syndicate Of Sound
                               Little Girl,  1966

Intro:

        Bb       F
        / / / /  / / / /

Chorus:

                     G                 C
        Keep hearin'...
          G                   C
        Although they're...
                     G                 C
        Keep hearin'...
                G          C
        They're all...

Fill 1:

        2x:

        G7 G7 [N.C., drum fill]
        /     /     /     /

Verse 1:

                G     F  C
        I went...
        G       F         C  G    F  C
          But I...
        G     F         C  G                 Bb
          You know...
                           (you know...)
                            D
        You know...

Fill 2:

        D   [N.C.]
        v   v   v   v
        ----------------|
        ----6b7---------|
        ----6b7---------|
        ----------------|
        ----------------|
        ----------------|

[Repeat chrous]

Fill 3:

        bass:

        G7 G7 [N.C.]       G7 G7 [N.C.]
        v     v   v   v    v     v   v   v
        0--0--3-5-6-6-5-3-|0--0--------------|
        ------------------|------3-0---------|
        ------------------|----------3-2-1-0-|
        ------------------|------------------|

Verse 2:

        Not this...
          Not with...
          You've had...
                            (had your...)
        Now set...

Fill 4:

        D [N.C., drum fill]
        / / / /

[Repeat chorus]

Coda:

        G7  G7  [N.C.]                   G7  G7  [N.C.]
        v       v       v       v        v       v       v       v
        --------------------------------|--------------------------------|
        ----5b6-------------------------|--------------------------------|
        ----6b7-------------------------|--------7---7---5-0-0-0-5---4---|
        --------------------------------|--------------------------------|
        --------------------------------|--------------------------------|
        --------------------------------|--------------------------------|

        G   F C
        / / / /

        G   F     C    G     F  C
            What goes...
        G     F      C       G     F  C
            I really...
        G   F     C    G     F  C
            What goes...
                       [double time]
        G     F      C
            I really...

        [Note: what follows is what the liner notes to the Syndicate's 1988
               compilation say is a "strange hindu progression", whatever
               that might be.]

        fuzz guitar [low E string] & clean guitar [high E string], [10x]:

        G             Bb
        v   v   v   v
        3-3-3-3-3-3-3-6-|
        ----------------|
        ----------------|
        ----------------|
        ----------------|
        3-------------6-|
       (...know.)

       [end double time]

        G   F C
        / / / /

        G   F     C    G     F  C
            What goes...
        G     F      C       G     F  C
            I really...
        G   F     C    G     F  C
            What goes...
        G     F      C       G     F  C
            I really...

        [fade:]

                G   F     C    G
            What goes...

Questions? Comments? E-mail Alex at springalo430@hotmail.com
     
Добавлено: 27.08.2013
Вам также может быть интересно:
Другие материалы по этой песне:
  • Аккорды и текст

Страница создана 27.08.2013
http://primanota.ru/syndicate-of-sound/rumors-chords.htm
Привет, Гость.
Предлагаем пройти революционный курс по гитаре.
Подарок от PrimaNota.Ru, забирай!