PrimaNota.ru - самый крупный в мире бесплатный архив песенных текстов, аккордов, табулатур и нот


Symptom 7 - Bound - таба, видео

Регистрация Запомнить меня
Войти через:  Facebook Google Twitter Vk Yandex Mail.ru

Symptom 7 - Bound - таба, видео

Печатать
Просмотров: 87
Symptom 7
Bound
©2007 Geoff Unger (BMI)

From Symptom 7 - VOL.1 (DZ/Records - Into the Whip Records)


Gtr I (C G C F A D)

  Q=152
 4/4
  Gtr I
                                                             ~~~~~~~~~
  Q.    Q.   Q      +E  E E E E E  E E    H         +Q    E  E    +W
|-----------------|--------------------|-----------------------|---------|
|-----------------|------------------5-|-----------------------|---------|
|-----------------|-----------2-4-/6---|-11b14=====(11)r=11-11-|-(11)----|
|-----------------|-------2-4----------|-----------------------|---------|
|------------2b4--|-(2)-4--------------|-----------------------|---------|
|-2b4---4---------|--------------------|-----------------------|---------|


   S  S  S  S  S  S  S  S  S  S  S  S  S  S  S  S
|-------------------------------14----------------|
|-14h15p14----14----------------------------------|
|----------17----17p16p14h16h17----17p16p14-------|
|-------------------------------------------16-14-|
|-------------------------------------------------|
|-------------------------------------------------|


                            ~~~
   E     S  S  S  S  S  S   H
|--------------------------------|
|--------------------------------|
|-15b16r=========================|
|-------16-14-------------/16----|
|-------------16-15-14S13--------|
|--------------------------------|


   |------6-------|  |------6-------|  |------6-------|  |------6-------|
   S  S  S  S  S  S  S  S  S  S  S  S  S  S  S  S  S  S  S  S  S  S  S  S
|-------------------14h17h19p17p14S17h19h22p19p17S14h17h19p17p14----------
|-------------------------------------------------------------------------
|----------14h16h19----------------------------------------------19p16p14-
|-------------------------------------------------------------------------
|-14h16h19----------------------------------------------------------------
|-------------------------------------------------------------------------


   |------6-------|  |------6-------|  |------6-------|  |------6-------|
   S  S  S  S  S  S  S  S  S  S  S  S  S  S  S  S  S  S  S  S  S  S  S  S
|----------------------------12h15h17p15p12S15h17h20p17p15S12h15h17p15p12-|
|-------------------------------------------------------------------------|
|-------------------12h14h17----------------------------------------------|
|-------------------------------------------------------------------------|
|-19p16p14S12h14h17-------------------------------------------------------|
|-------------------------------------------------------------------------|


   |------6-------|  |------6-------|  |------6-------|  |------6-------|
   S  S  S  S  S  S  S  S  S  S  S  S  S  S  S  S  S  S  S  S  S  S  S  S
|-------------------------------------14h17h19p17p14S17h19h22p19p17S14h17h=|
|--------------------------------------------------------------------------|
|-17p14p12-------------------14h16h19--------------------------------------|
|--------------------------------------------------------------------------|
|----------17p14p12h14h16h19-----------------------------------------------|
|--------------------------------------------------------------------------|


                                                                     ~~~~~~~
   |------6-------|  |------6-------|  |------6-------|  |-----6-----|
   S  S  S  S  S  S  S  S  S  S  S  S  S  S  S  S  S  S  S  S  S  S  E
|-19p17p14----------------------------------14h17h19p17p14-----------------|
|----------------------------------------------------------19p16p14-17b19==|
|----------19p16p14----------------14h16h19--------------------------------|
|--------------------------------------------------------------------------|
|-------------------19p16p14h16h19-----------------------------------------|
|--------------------------------------------------------------------------|


 ~~~~~~~~~~~~~~
                 |--3--|
   +H      +q    S  S  S
|---------------10-12-14--|
|-(17)----(17)------------|
|-------------------------|
|-------------------------|
|-------------------------|
|-------------------------|


   |------6-------|  |------6-------|  |------6-------|  |------6-------|
   S  S  S  S  S  S  S  S  S  S  S  S  S  S  S  S  S  S  S  S  S  S  S  S
|-15-14-12-10-12-14-15-14-12-10-12-14-15-14-12-10-12-14-15-14-12-14-15-17-|
|-------------------------------------------------------------------------|
|-------------------------------------------------------------------------|
|-------------------------------------------------------------------------|
|-------------------------------------------------------------------------|
|-------------------------------------------------------------------------|


   |------6-------|  |------6-------|  |------6-------|  |------6-------|
   S  S  S  S  S  S  S  S  S  S  S  S  S  S  S  S  S  S  S  S  S  S  S  S
|-19-17-15-14-15-17-19-17-15-14-15-17-19-17-15-14-15-17-19-17-15-17-19-20-|
|-------------------------------------------------------------------------|
|-------------------------------------------------------------------------|
|-------------------------------------------------------------------------|
|-------------------------------------------------------------------------|
|-------------------------------------------------------------------------|


   |------6-------|  |------6-------|  |------6-------|  |------6-------|
   S  S  S  S  S  S  S  S  S  S  S  S  S  S  S  S  S  S  S  S  S  S  S  S
|-22-20-19-17-19-20-22-20-19-17-19-20-22-20-19-17-19-20-22-20-19-17-19-20-|
|-------------------------------------------------------------------------|
|-------------------------------------------------------------------------|
|-------------------------------------------------------------------------|
|-------------------------------------------------------------------------|
|-------------------------------------------------------------------------|


   ~~~~~~
   W
|-20b22=====*|
|-----------*|
|-----------*|
|-----------*|
|-----------*|
|-----------*|


Duration Legend
---------------
W - whole; H - half; Q - quarter; E - 8th; S - 16th; T - 32nd; X - 64th; a - acciaccatura
+ - note tied to previous; . - note dotted; .. - note double dotted
Uncapitalized letters represent notes that are staccato (1/2 duration)
Irregular groupings are notated above the duration line
Duration letters will always appear directly above the note/fret number it represents the
duration for.  Duration letters with no fret number below them represent rests.  Multi-
bar rests are notated in the form Wxn, where n is the number of bars to rest for.  Low
melody durations appear below the staff

Tablature Legend
----------------
 h   - hammer-on
 p   - pull-off
 b   - bend
 pb  - pre-bend
 r   - bend release (if no number after the r, then release immediately)
 /\  - slide into or out of (from/to "nowhere")
 s   - legato slide
 S   - shift slide
  - natural harmonic
[n]  - artificial harmonic
n(n) - tapped harmonic
 ~   - vibrato
 tr  - trill
 T   - tap
 TP  - trem. picking
 PM  - palm muting
\n/  - tremolo bar dip; n = amount to dip
 \n  - tremolo bar down
 n/  - tremolo bar up
/n\  - tremolo bar inverted dip
 =   - hold bend; also acts as connecting device for hammers/pulls
 <>  - volume swell (louder/softer)
 x   - on rhythm slash represents muted slash
 o   - on rhythm slash represents single note slash

Misc Legend
-----------
 |  - bar
||  - double bar
||o - repeat start
o|| - repeat end
*|  - double bar (ending)
 :  - bar (freetime)
 $  - Segno
 &  - Coda
Tempo markers -  = BPM(8/16=s8/s16), where s8 = swing 8ths, s16 = swing 16ths
Добавлено: 29.07.2012
Другие материалы по этой песне:
  • Аккорды и текст

Страница создана 29.07.2012
http://primanota.ru/symptom-7/bound-chords.htm
Привет, Гость.
Предлагаем пройти революционный курс по гитаре.
Подарок от PrimaNota.Ru, забирай!