PrimaNota.ru - самый крупный в мире бесплатный архив песенных текстов, аккордов, табулатур и нот


Symposium - Xanthein - таба, бас-таба, видео

Регистрация Запомнить меня
Войти через:  Facebook Google Twitter Vk Yandex Mail.ru

Symposium - Xanthein - таба, бас-таба, видео

Печатать
Просмотров: 44
Title: Xanthein
Artist: Symposium
Album: Farewell to Twilight single
Tabber: Philip Tweedie 
Standard tuning

____________________________________________________________________________________________
Intro
Guitar 1 clean

|-5-5-5-5-5-5-5-5-|-12-12-12-12-12-12-12-12-|-3-3-3-3-3-3-3-3-|-10-10-10-10-10-10-10-10-|
|-5-5-5-5-5-5-5-5-|-12-12-12-12-12-12-12-12-|-3-3-3-3-3-3-3-3-|-10-10-10-10-10-10-10-10-|
|-----------------|-------------------------|-----------------|-------------------------| x4
|-----------------|-------------------------|-----------------|-------------------------|
|-----------------|-------------------------|-----------------|-------------------------|
|-----------------|-------------------------|-----------------|-------------------------|

PM-----   ---   --   ----   ---        ----  ----      ----    ----   
|-----------------|-----------------|-----------------|-----------------|
|-----------------|-----------------|-----------------|-----------------|
|-2-----2-----2---|-----------------|-----------------|-----7-------6---|
|-2-----2-----2---|-2-----2-----3---|-4-----4-----4---|-----7-------6---|
|-0-0-0-0-0-0-0-0-|-2-----2-----3---|-4-----4-----4---|-5-5-5---4-4-4---|
|-----------------|-0-0-0-0-0-0-1---|-2-2-2-2-2-2-2---|-----------------|

PM-----   ---   --   ----   ---        ----  ----      Dist and both guitars
|-----------------|-----------------|-----------------|-----------------|
|-----------------|-----------------|-----------------|-----------------|
|-2-----2-----2---|-----------------|-----------------|-7--7--7--6--4---|
|-2-----2-----2---|-2-----2-----3---|-4-----4-----4---|-7--7--7--6--4---|
|-0-0-0-0-0-0-0-0-|-2-----2-----3---|-4-----4-----4---|-5--5--5--4--2---|
|-----------------|-0-0-0-0-0-0-1---|-2-2-2-2-2-2-2---|-----------------|

Guitar 1 & 2
|---------------|-----------------|-----------------|-----------------|
|---------------|-----------------|-----------------|-----------------|
|-2--2--2-2-2-2-|-----------------|-----------------|-7-7-7-7-6-6-6-6-|
|-2--2--2-2-2-2-|-2-2-2-2-2-2-3-3-|-4-4-4-4-4-4-4-4-|-7-7-7-7-6-6-6-6-|
|-0--0--0-0-0-0-|-2-2-2-2-2-2-3-3-|-4-4-4-4-4-4-4-4-|-5-5-5-5-4-4-4-4-|
|---------------|-0-0-0-0-0-0-1-1-|-2-2-2-2-2-2-2-2-|-----------------|

|---------------|-----------------|-----------------|-----------------|
|---------------|-----------------|-----------------|-----------------|
|-2--2--2-2-2-2-|-----------------|-----------------|-7-7-----6-6-----|
|-2--2--2-2-2-2-|-2-2-2-2-2-2-3-3-|-4-4-4-4-4-4-4-4-|-7-7-----6-6-----|
|-0--0--0-0-0-0-|-2-2-2-2-2-2-3-3-|-4-4-4-4-4-4-4-4-|-5-5-----4-4-----|
|---------------|-0-0-0-0-0-0-1-1-|-2-2-2-2-2-2-2-2-|-----------------|
____________________________________________________________________________________________

Verse 1 play x2
Guitar 1 & 2
|-----------------|-----------------|-----------------|-----------------|
|-----------------|-----------------|-----------------|-----------------|
|-----------------|-----------------|-----------------|-----------------| x2
|-7-------x-x---x-|-7-------x-x---x-|-4-------x-x---x-|-----------------|
|-7-------x-x---x-|-7-------x-x---x-|-4-------x-x---x-|-5-4-5---7-6-7---|
|-5-------x-x---x-|-5-------x-x---x-|-2-------x-x---x-|-----------------|

Guitar 1
|---------------|---------------|---------------|---------------|
|---------------|---------------|---------------|---------------|
|---------------|---------------|---------------|---------------| x2
|----7--6-------|----7--6-------|----4----------|---------------|
|-0-------7-5-7-|-0-------7-5-7-|-------4-3-4---|-5-4-5---7-6-7-|
|---------------|---------------|-2-------------|---------------|

Guitar 2
|-9--10--9--10--|-9--10--9--10--|-10--9--10--9--|-10--9--10--9--|
|---------------|---------------|---------------|---------------|
|---------------|---------------|---------------|---------------| x2
|---------------|---------------|---------------|---------------|
|---------------|---------------|---------------|---------------|
|---------------|---------------|---------------|---------------|

Too much x and not enough Y, Too much of the stuff that won't let me cry,
Why couldn't I see I heading for a fall, Sometimes I think I don't think at all.

It's not your fault please understand, It's mine for being like any other man,
I dont want to hurt you.
____________________________________________________________________________________________

Pre chorus
Guitar 1
|-----------------|-----------------|-----------------|-----------------|
|-----------------|-----------------|-----------------|-----------------|
|-----------------|-9-9-9-9-9-9-9-9-|-----------------|-7-7-7-7-7-7-7-7-| x2
|-7-7-7-7-7-7-7-7-|-9-9-9-9-9-9-9-9-|-5-5-5-5-5-5-5-5-|-7-7-7-7-7-7-7-7-|
|-7-7-7-7-7-7-7-7-|-7-7-7-7-7-7-7-7-|-5-5-5-5-5-5-5-5-|-5-5-5-5-5-5-5-5-|
|-5-5-5-5-5-5-5-5-|-----------------|-3-3-3-3-3-3-3-3-|-----------------|

Guitar 2
|-5-5-5-5-5-5-5-5-|-12-12-12-12-12-12-12-12-|-3-3-3-3-3-3-3-3-|-10-10-10-10-10-10-10-10-|
|-5-5-5-5-5-5-5-5-|-12-12-12-12-12-12-12-12-|-3-3-3-3-3-3-3-3-|-10-10-10-10-10-10-10-10-|
|-----------------|-------------------------|-----------------|-------------------------| x2
|-----------------|-------------------------|-----------------|-------------------------|
|-----------------|-------------------------|-----------------|-------------------------|
|-----------------|-------------------------|-----------------|-------------------------|
____________________________________________________________________________________________

Chorus
Guitar 1
|---------------|-----------------|-----------------|-----------------|
|---------------|-----------------|-----------------|-----------------|
|-2--2--2-2-2-2-|-----------------|-----------------|-7-7-7-7-6-6-6-6-| x3
|-2--2--2-2-2-2-|-2-2-2-2-2-2-3-3-|-4-4-4-4-4-4-4-4-|-7-7-7-7-6-6-6-6-|
|-0--0--0-0-0-0-|-2-2-2-2-2-2-3-3-|-4-4-4-4-4-4-4-4-|-5-5-5-5-4-4-4-4-|
|---------------|-0-0-0-0-0-0-1-1-|-2-2-2-2-2-2-2-2-|-----------------|

|---------------|-----------------|-----------------|-----------------|
|---------------|-----------------|-----------------|-----------------|
|-2--2--2-2-2-2-|-----------------|-----------------|-7-7-----6-6-----|
|-2--2--2-2-2-2-|-2-2-2-2-2-2-3-3-|-4-4-4-4-4-4-4-4-|-7-7-----6-6-----|
|-0--0--0-0-0-0-|-2-2-2-2-2-2-3-3-|-4-4-4-4-4-4-4-4-|-5-5-----4-4-----|
|---------------|-0-0-0-0-0-0-1-1-|-2-2-2-2-2-2-2-2-|-----------------|

Guitar 2 x4
|-9--9--9--9--9--9--9--9--|-9-9-9-9-9-9-9-9-|-9--9--9--9--9--9--9--9--|
|-10-10-10-10-10-10-10-10-|-9-9-9-9-9-9-9-9-|-10-10-10-10-10-10-10-10-|
|-------------------------|-----------------|-------------------------|
|-------------------------|-----------------|-------------------------|
|-------------------------|-----------------|-------------------------|
|-------------------------|-----------------|-------------------------|

                                Replace last bar on 4th repeat
|-9--9--9--9--9-9-9-9-|         |-----------------|
|-10-10-10-10-9-9-9-9-|         |-----------------|
|---------------------|         |-7-7-----6-6-----|
|---------------------|         |-7-7-----6-6-----|
|---------------------|         |-5-5-----4-4-----|
|---------------------|         |-----------------|

I don't love you Xanthen, I don't love you Xanthen,
I don't love you Xanthen, I don't love you Xanthen.
____________________________________________________________________________________________

Verse 2 play x2
Guitar 1 & 2
|-----------------|-----------------|-----------------|-----------------|
|-----------------|-----------------|-----------------|-----------------|
|-----------------|-----------------|-----------------|-----------------| x2
|-7-------x-x---x-|-7-------x-x---x-|-4-------x-x---x-|-----------------|
|-7-------x-x---x-|-7-------x-x---x-|-4-------x-x---x-|-5-4-5---7-6-7---|
|-5-------x-x---x-|-5-------x-x---x-|-2-------x-x---x-|-----------------|

Guitar 1
|---------------|---------------|---------------|---------------|
|---------------|---------------|---------------|---------------|
|---------------|---------------|---------------|---------------| x2
|----7--6-------|----7--6-------|----4----------|---------------|
|-0-------7-5-7-|-0-------7-5-7-|-------4-3-4---|-5-4-5---7-6-7-|
|---------------|---------------|-2-------------|---------------|

Guitar 2
|-9--10--9--10--|-9--10--9--10--|-10--9--10--9--|-10--9--10--9--|
|---------------|---------------|---------------|---------------|
|---------------|---------------|---------------|---------------| x2
|---------------|---------------|---------------|---------------|
|---------------|---------------|---------------|---------------|
|---------------|---------------|---------------|---------------|

I want to say what we never say, Because we havn't the guts and we get blown away, 
I love you too much, but not enough.
It's not your fault please understand, It's mine for being like any other man,
I dont want to hurt you.
____________________________________________________________________________________________

Pre chorus
Guitar 1
|-----------------|-----------------|-----------------|-----------------|
|-----------------|-----------------|-----------------|-----------------|
|-----------------|-9-9-9-9-9-9-9-9-|-----------------|-7-7-7-7-7-7-7-7-| x2
|-7-7-7-7-7-7-7-7-|-9-9-9-9-9-9-9-9-|-5-5-5-5-5-5-5-5-|-7-7-7-7-7-7-7-7-|
|-7-7-7-7-7-7-7-7-|-7-7-7-7-7-7-7-7-|-5-5-5-5-5-5-5-5-|-5-5-5-5-5-5-5-5-|
|-5-5-5-5-5-5-5-5-|-----------------|-3-3-3-3-3-3-3-3-|-----------------|

Guitar 2
|-5-5-5-5-5-5-5-5-|-12-12-12-12-12-12-12-12-|-3-3-3-3-3-3-3-3-|-10-10-10-10-10-10-10-10-|
|-5-5-5-5-5-5-5-5-|-12-12-12-12-12-12-12-12-|-3-3-3-3-3-3-3-3-|-10-10-10-10-10-10-10-10-|
|-----------------|-------------------------|-----------------|-------------------------| x2
|-----------------|-------------------------|-----------------|-------------------------|
|-----------------|-------------------------|-----------------|-------------------------|
|-----------------|-------------------------|-----------------|-------------------------|
____________________________________________________________________________________________

Chorus 2
Guitar 1
|---------------|-----------------|-----------------|-----------------|
|---------------|-----------------|-----------------|-----------------|
|-2--2--2-2-2-2-|-----------------|-----------------|-7-7-7-7-6-6-6-6-| x3
|-2--2--2-2-2-2-|-2-2-2-2-2-2-3-3-|-4-4-4-4-4-4-4-4-|-7-7-7-7-6-6-6-6-|
|-0--0--0-0-0-0-|-2-2-2-2-2-2-3-3-|-4-4-4-4-4-4-4-4-|-5-5-5-5-4-4-4-4-|
|---------------|-0-0-0-0-0-0-1-1-|-2-2-2-2-2-2-2-2-|-----------------|

|---------------|-----------------|-----------------|-----------------|
|---------------|-----------------|-----------------|-----------------|
|-2--2--2-2-2-2-|-----------------|-----------------|-7-7-----6-6-----|
|-2--2--2-2-2-2-|-2-2-2-2-2-2-3-3-|-4-4-4-4-4-4-4-4-|-7-7-----6-6-----|
|-0--0--0-0-0-0-|-2-2-2-2-2-2-3-3-|-4-4-4-4-4-4-4-4-|-5-5-----4-4-----|
|---------------|-0-0-0-0-0-0-1-1-|-2-2-2-2-2-2-2-2-|-----------------|

Guitar 2 x4
|-9--9--9--9--9--9--9--9--|-9-9-9-9-9-9-9-9-|-9--9--9--9--9--9--9--9--|
|-10-10-10-10-10-10-10-10-|-9-9-9-9-9-9-9-9-|-10-10-10-10-10-10-10-10-|
|-------------------------|-----------------|-------------------------|
|-------------------------|-----------------|-------------------------|
|-------------------------|-----------------|-------------------------|
|-------------------------|-----------------|-------------------------|

                                Replace last bar on 4th repeat
|-9--9--9--9--9-9-9-9-|         |-----------------|
|-10-10-10-10-9-9-9-9-|         |-----------------|
|---------------------|         |-7-7-----6-6-----|
|---------------------|         |-7-7-----6-6-----|
|---------------------|         |-5-5-----4-4-----|
|---------------------|         |-----------------|

I don't love you Xanthen, I don't love you Xanthen,
I don't love you Xanthen, I don't love you...
____________________________________________________________________________________________

Bridge
Guitar 1 x2
|-----------------|-----------------|-----------------|--------------------------|
|-----------------|-----------------|-----------------|--------------------------|
|-----------------|-----------------|-----------------|--------------------------|
|-----------------|-----------------|-----------------|--------------------------|
|-----------------|-----------------|-----------------|--------------------------|
|-5-4-5-5-4-5-5-4-|-5-4-5-5-4-5-5-4-|-2-1-2-2-1-2-2-1-|-/10-9-10-10-9-10-10-9----|

|-----------------|-----------------|-----------------|--------------------------|
|-----------------|-----------------|-----------------|--------------------------|
|-----------------|-----------------|-----------------|--------------------------|
|-----------------|-----------------|-----------------|--------------------------|
|-----------------|-----------------|-9-8-9-9-8-9-9-8-|--------------------------|
|-5-4-5-5-4-5-5-4-|-5-4-5-5-4-5-5-4-|-----------------|-/10-9-10-10-9-10-10-9----|

Guitar 2
|-----|------|-|-|-----|------|-|----------|-----|------|-|----------|-----|------|-|-|
|-----|------|-|-|-----|------|-|----------|-----|------|-|----------|-----|------|-|-|
|-2---|-(2)--|-|-|-2---|-(2)--|-|------2-2-|-2---|-(2)--|-|------2-2-|-2---|-(2)--|-|-|
|-2---|-(2)--|-|-|-2---|-(2)--|-|------2-2-|-2---|-(2)--|-|------2-2-|-2---|-(2)--|-|-|
|-0---|-(0)--|-|-|-0---|-(0)--|-|------0-0-|-0---|-(0)--|-|------0-0-|-0---|-(0)--|-|-|
|-----|------|-|-|-----|------|-|----------|-----|------|-|----------|-----|------|-|-|
____________________________________________________________________________________________

Outro Chorus 
Guitar 1
|---------------|-----------------|-----------------|-----------------|
|---------------|-----------------|-----------------|-----------------|
|-2--2--2-2-2-2-|-----------------|-----------------|-7-7-7-7-6-6-6-6-| x3
|-2--2--2-2-2-2-|-2-2-2-2-2-2-3-3-|-4-4-4-4-4-4-4-4-|-7-7-7-7-6-6-6-6-|
|-0--0--0-0-0-0-|-2-2-2-2-2-2-3-3-|-4-4-4-4-4-4-4-4-|-5-5-5-5-4-4-4-4-|
|---------------|-0-0-0-0-0-0-1-1-|-2-2-2-2-2-2-2-2-|-----------------|

|---------------|-----------------|-----------------|
|---------------|-----------------|-----------------|
|-2--2--2-2-2-2-|-----------------|-----------------|
|-2--2--2-2-2-2-|-2-2-2-2-2-2-3-3-|-4-4-4-4-4-4-4-4-|
|-0--0--0-0-0-0-|-2-2-2-2-2-2-3-3-|-4-4-4-4-4-4-4-4-|
|---------------|-0-0-0-0-0-0-1-1-|-2-2-2-2-2-2-2-2-|

Guitar 2 x4
|-9--9--9--9--9--9--9--9--|-9-9-9-9-9-9-9-9-|-9--9--9--9--9--9--9--9--|
|-10-10-10-10-10-10-10-10-|-9-9-9-9-9-9-9-9-|-10-10-10-10-10-10-10-10-|
|-------------------------|-----------------|-------------------------|
|-------------------------|-----------------|-------------------------|
|-------------------------|-----------------|-------------------------|
|-------------------------|-----------------|-------------------------|
                                
|-9--9--9--9--9-9-9-9-|
|-10-10-10-10-9-9-9-9-|
|---------------------|
|---------------------|
|---------------------|
|---------------------|

Guitar 1 & 2 (4/5 time)
|-----------------------|
|-----------------------|
|---7---7---7---6---4---| x3
|---7---7---7---6---4---|
|---5---5---5---4---2---|
|-----------------------|

|-----------------------|-----------|---------|
|-----------------------|-----------|---------|
|---7---7---7---6---4---|--(4)--2---|--(2)----|
|---7---7---7---6---4---|--(4)--2---|--(2)----|
|---5---5---5---4---2---|--(2)--0---|--(0)----|
|-----------------------|-----------|---------|

I don't love you Xanthen, I don't love you Xanthen,
I don't love you Xanthen, I don't love you...
____________________________________________________________________________________________



Enjoy
Please rate and leave constructive comments/feedback
Добавлено: 14.07.2015
Другие материалы по этой песне:

Страница создана 02.03.2012
http://primanota.ru/symposium/xanthein-chords.htm
Привет, Гость.
Предлагаем пройти революционный курс по гитаре.
Подарок от PrimaNota.Ru, забирай!